  0
SECTION
  2
HEADER
  9
$ACADVER
  1
AC1015
  9
$ACADMAINTVER
 70
     6
  9
$DWGCODEPAGE
  3
ANSI_1254
  9
$INSBASE
 10
0.0
 20
0.0
 30
0.0
  9
$EXTMIN
 10
0.0
 20
0.0
 30
0.0
  9
$EXTMAX
 10
279.4
 20
215.9
 30
0.0
  9
$LIMMIN
 10
0.0
 20
0.0
  9
$LIMMAX
 10
279.4
 20
215.9
  9
$ORTHOMODE
 70
     0
  9
$REGENMODE
 70
     1
  9
$FILLMODE
 70
     1
  9
$QTEXTMODE
 70
     0
  9
$MIRRTEXT
 70
     1
  9
$LTSCALE
 40
1.0
  9
$ATTMODE
 70
     1
  9
$TEXTSIZE
 40
3.5
  9
$TRACEWID
 40
1.0
  9
$TEXTSTYLE
  7
Standard
  9
$CLAYER
  8
0
  9
$CELTYPE
  6
ByLayer
  9
$CECOLOR
 62
   256
  9
$CELTSCALE
 40
1.0
  9
$DISPSILH
 70
     0
  9
$DIMSCALE
 40
1.0
  9
$DIMASZ
 40
3.5
  9
$DIMEXO
 40
1.0
  9
$DIMDLI
 40
3.75
  9
$DIMRND
 40
0.0
  9
$DIMDLE
 40
0.0
  9
$DIMEXE
 40
1.0
  9
$DIMTP
 40
0.0
  9
$DIMTM
 40
0.0
  9
$DIMTXT
 40
3.5
  9
$DIMCEN
 40
2.5
  9
$DIMTSZ
 40
0.0
  9
$DIMTOL
 70
     0
  9
$DIMLIM
 70
     0
  9
$DIMTIH
 70
     1
  9
$DIMTOH
 70
     1
  9
$DIMSE1
 70
     0
  9
$DIMSE2
 70
     0
  9
$DIMTAD
 70
     1
  9
$DIMZIN
 70
     0
  9
$DIMBLK
  1

  9
$DIMASO
 70
     1
  9
$DIMSHO
 70
     1
  9
$DIMPOST
  1

  9
$DIMAPOST
  1

  9
$DIMALT
 70
     0
  9
$DIMALTD
 70
     3
  9
$DIMALTF
 40
0.0393700787
  9
$DIMLFAC
 40
1.0
  9
$DIMTOFL
 70
     1
  9
$DIMTVP
 40
0.0
  9
$DIMTIX
 70
     0
  9
$DIMSOXD
 70
     0
  9
$DIMSAH
 70
     0
  9
$DIMBLK1
  1

  9
$DIMBLK2
  1

  9
$DIMSTYLE
  2
ISO-25
  9
$DIMCLRD
 70
     0
  9
$DIMCLRE
 70
     0
  9
$DIMCLRT
 70
     0
  9
$DIMTFAC
 40
1.0
  9
$DIMGAP
 40
1.524
  9
$DIMJUST
 70
     0
  9
$DIMSD1
 70
     0
  9
$DIMSD2
 70
     0
  9
$DIMTOLJ
 70
     0
  9
$DIMTZIN
 70
     0
  9
$DIMALTZ
 70
     0
  9
$DIMALTTZ
 70
     0
  9
$DIMUPT
 70
     0
  9
$DIMDEC
 70
     2
  9
$DIMTDEC
 70
     2
  9
$DIMALTU
 70
     2
  9
$DIMALTTD
 70
     3
  9
$DIMTXSTY
  7
Standard
  9
$DIMAUNIT
 70
     0
  9
$DIMADEC
 70
     2
  9
$DIMALTRND
 40
0.0
  9
$DIMAZIN
 70
     0
  9
$DIMDSEP
 70
    44
  9
$DIMATFIT
 70
     3
  9
$DIMFRAC
 70
     0
  9
$DIMLDRBLK
  1

  9
$DIMLUNIT
 70
     2
  9
$DIMLWD
 70
    -2
  9
$DIMLWE
 70
    -2
  9
$DIMTMOVE
 70
     0
  9
$LUNITS
 70
     2
  9
$LUPREC
 70
     2
  9
$SKETCHINC
 40
1.0
  9
$FILLETRAD
 40
10.0
  9
$AUNITS
 70
     0
  9
$AUPREC
 70
     2
  9
$MENU
  1
.
  9
$ELEVATION
 40
0.0
  9
$PELEVATION
 40
0.0
  9
$THICKNESS
 40
0.0
  9
$LIMCHECK
 70
     0
  9
$CHAMFERA
 40
0.0
  9
$CHAMFERB
 40
0.0
  9
$CHAMFERC
 40
0.0
  9
$CHAMFERD
 40
0.0
  9
$SKPOLY
 70
     0
  9
$TDCREATE
 40
2459741.588635093
  9
$TDUCREATE
 40
2459741.463635093
  9
$TDUPDATE
 40
2459741.58863662
  9
$TDUUPDATE
 40
2459741.46363662
  9
$TDINDWG
 40
0.0000000116
  9
$TDUSRTIMER
 40
0.0000000116
  9
$USRTIMER
 70
     1
  9
$ANGBASE
 50
0.0
  9
$ANGDIR
 70
     0
  9
$PDMODE
 70
     0
  9
$PDSIZE
 40
-1.0
  9
$PLINEWID
 40
0.0
  9
$SPLFRAME
 70
     0
  9
$SPLINETYPE
 70
     6
  9
$SPLINESEGS
 70
     8
  9
$HANDSEED
  5
11E
  9
$SURFTAB1
 70
     6
  9
$SURFTAB2
 70
     6
  9
$SURFTYPE
 70
     6
  9
$SURFU
 70
     6
  9
$SURFV
 70
     6
  9
$UCSBASE
  2

  9
$UCSNAME
  2

  9
$UCSORG
 10
0.0
 20
0.0
 30
0.0
  9
$UCSXDIR
 10
1.0
 20
0.0
 30
0.0
  9
$UCSYDIR
 10
0.0
 20
1.0
 30
0.0
  9
$UCSORTHOREF
  2

  9
$UCSORTHOVIEW
 70
     0
  9
$UCSORGTOP
 10
0.0
 20
0.0
 30
0.0
  9
$UCSORGBOTTOM
 10
0.0
 20
0.0
 30
0.0
  9
$UCSORGLEFT
 10
0.0
 20
0.0
 30
0.0
  9
$UCSORGRIGHT
 10
0.0
 20
0.0
 30
0.0
  9
$UCSORGFRONT
 10
0.0
 20
0.0
 30
0.0
  9
$UCSORGBACK
 10
0.0
 20
0.0
 30
0.0
  9
$PUCSBASE
  2

  9
$PUCSNAME
  2

  9
$PUCSORG
 10
0.0
 20
0.0
 30
0.0
  9
$PUCSXDIR
 10
1.0
 20
0.0
 30
0.0
  9
$PUCSYDIR
 10
0.0
 20
1.0
 30
0.0
  9
$PUCSORTHOREF
  2

  9
$PUCSORTHOVIEW
 70
     0
  9
$PUCSORGTOP
 10
0.0
 20
0.0
 30
0.0
  9
$PUCSORGBOTTOM
 10
0.0
 20
0.0
 30
0.0
  9
$PUCSORGLEFT
 10
0.0
 20
0.0
 30
0.0
  9
$PUCSORGRIGHT
 10
0.0
 20
0.0
 30
0.0
  9
$PUCSORGFRONT
 10
0.0
 20
0.0
 30
0.0
  9
$PUCSORGBACK
 10
0.0
 20
0.0
 30
0.0
  9
$USERI1
 70
     0
  9
$USERI2
 70
     0
  9
$USERI3
 70
     0
  9
$USERI4
 70
     0
  9
$USERI5
 70
     0
  9
$USERR1
 40
0.0
  9
$USERR2
 40
0.0
  9
$USERR3
 40
0.0
  9
$USERR4
 40
0.0
  9
$USERR5
 40
0.0
  9
$WORLDVIEW
 70
     1
  9
$SHADEDGE
 70
     3
  9
$SHADEDIF
 70
    70
  9
$TILEMODE
 70
     1
  9
$MAXACTVP
 70
    64
  9
$PINSBASE
 10
0.0
 20
0.0
 30
0.0
  9
$PLIMCHECK
 70
     0
  9
$PEXTMIN
 10
1.0000000000E+20
 20
1.0000000000E+20
 30
1.0000000000E+20
  9
$PEXTMAX
 10
-1.0000000000E+20
 20
-1.0000000000E+20
 30
-1.0000000000E+20
  9
$PLIMMIN
 10
0.0
 20
0.0
  9
$PLIMMAX
 10
420.0
 20
297.0
  9
$UNITMODE
 70
     0
  9
$VISRETAIN
 70
     1
  9
$PLINEGEN
 70
     0
  9
$PSLTSCALE
 70
     1
  9
$TREEDEPTH
 70
  3020
  9
$CMLSTYLE
  2
Standard
  9
$CMLJUST
 70
     0
  9
$CMLSCALE
 40
20.0
  9
$PROXYGRAPHICS
 70
     1
  9
$MEASUREMENT
 70
     1
  9
$CELWEIGHT
370
    -1
  9
$ENDCAPS
280
     0
  9
$JOINSTYLE
280
     0
  9
$LWDISPLAY
290
     1
  9
$INSUNITS
 70
     4
  9
$HYPERLINKBASE
  1

  9
$STYLESHEET
  1

  9
$XEDIT
290
     1
  9
$CEPSNTYPE
380
     0
  9
$PSTYLEMODE
290
     1
  9
$FINGERPRINTGUID
  2
{96f94a50-26af-47ae-8a1e-635fe76cb197}
  9
$VERSIONGUID
  2
{FAEB1C32-E019-11D5-929B-00C0DF256EC4}
  9
$EXTNAMES
290
     1
  9
$PSVPSCALE
 40
0.0
  9
$OLESTARTUP
290
     0
  0
ENDSEC
  0
SECTION
  2
CLASSES
  0
CLASS
  1
ACDBDICTIONARYWDFLT
  2
AcDbDictionaryWithDefault
  3
ObjectDBX Classes
 90
        0
280
     0
281
     0
  0
CLASS
  1
VISUALSTYLE
  2
AcDbVisualStyle
  3
ObjectDBX Classes
 90
     4095
280
     0
281
     0
  0
CLASS
  1
MATERIAL
  2
AcDbMaterial
  3
ObjectDBX Classes
 90
     1153
280
     0
281
     0
  0
CLASS
  1
SCALE
  2
AcDbScale
  3
ObjectDBX Classes
 90
     1153
280
     0
281
     0
  0
CLASS
  1
TABLESTYLE
  2
AcDbTableStyle
  3
ObjectDBX Classes
 90
     4095
280
     0
281
     0
  0
CLASS
  1
MLEADERSTYLE
  2
AcDbMLeaderStyle
  3
ACDB_MLEADERSTYLE_CLASS
 90
     4095
280
     0
281
     0
  0
CLASS
  1
SUN
  2
AcDbSun
  3
SCENEOE
 90
     1153
280
     0
281
     0
  0
CLASS
  1
ACDBPLACEHOLDER
  2
AcDbPlaceHolder
  3
ObjectDBX Classes
 90
        0
280
     0
281
     0
  0
CLASS
  1
LAYOUT
  2
AcDbLayout
  3
ObjectDBX Classes
 90
        0
280
     0
281
     0
  0
ENDSEC
  0
SECTION
  2
TABLES
  0
TABLE
  2
VPORT
  5
8
330
0
100
AcDbSymbolTable
 70
     1
  0
VPORT
  5
29
330
8
100
AcDbSymbolTableRecord
100
AcDbViewportTableRecord
  2
*Active
 70
     0
 10
0.0
 20
0.0
 11
1.0
 21
1.0
 12
139.7
 22
107.95
 13
0.0
 23
0.0
 14
10.0
 24
10.0
 15
10.0
 25
10.0
 16
0.0
 26
0.0
 36
1.0
 17
0.0
 27
0.0
 37
0.0
 40
215.9
 41
1.2941176471
 42
50.0
 43
0.0
 44
0.0
 50
0.0
 51
0.0
 71
     0
 72
  2000
 73
     1
 74
     3
 75
     0
 76
     0
 77
     0
 78
     0
281
     0
 65
     1
110
0.0
120
0.0
130
0.0
111
1.0
121
0.0
131
0.0
112
0.0
122
1.0
132
0.0
 79
     0
146
0.0
  0
ENDTAB
  0
TABLE
  2
LTYPE
  5
5
330
0
100
AcDbSymbolTable
 70
     6
  0
LTYPE
  5
14
330
5
100
AcDbSymbolTableRecord
100
AcDbLinetypeTableRecord
  2
ByBlock
 70
     0
  3

 72
    65
 73
     0
 40
0.0
  0
LTYPE
  5
15
330
5
100
AcDbSymbolTableRecord
100
AcDbLinetypeTableRecord
  2
ByLayer
 70
     0
  3

 72
    65
 73
     0
 40
0.0
  0
LTYPE
  5
16
330
5
100
AcDbSymbolTableRecord
100
AcDbLinetypeTableRecord
  2
Continuous
 70
     0
  3
Solid line
 72
    65
 73
     0
 40
0.0
  0
LTYPE
  5
6E
330
5
100
AcDbSymbolTableRecord
100
AcDbLinetypeTableRecord
  2
HIDDEN
 70
     0
  3
Hidden __ __ __ __ __ __ __ __ __ __ __ __ __ __
 72
    65
 73
     2
 40
1.905
 49
1.27
 74
     0
 49
-0.635
 74
     0
  0
LTYPE
  5
6F
330
5
100
AcDbSymbolTableRecord
100
AcDbLinetypeTableRecord
  2
PHANTOM
 70
     0
  3
Phantom ______  __  __  ______  __  __  ______
 72
    65
 73
     6
 40
12.7
 49
6.35
 74
     0
 49
-1.27
 74
     0
 49
1.27
 74
     0
 49
-1.27
 74
     0
 49
1.27
 74
     0
 49
-1.27
 74
     0
  0
LTYPE
  5
70
330
5
100
AcDbSymbolTableRecord
100
AcDbLinetypeTableRecord
  2
CENTER
 70
     0
  3
Center ____ _ ____ _ ____ _ ____ _ ____ _ ____
 72
    65
 73
     4
 40
10.16
 49
6.35
 74
     0
 49
-1.27
 74
     0
 49
1.27
 74
     0
 49
-1.27
 74
     0
  0
LTYPE
  5
71
330
5
100
AcDbSymbolTableRecord
100
AcDbLinetypeTableRecord
  2
CENTERX2
 70
     0
  3
Center (2x) ________  __  ________  __  _____
 72
    65
 73
     4
 40
20.32
 49
12.7
 74
     0
 49
-2.54
 74
     0
 49
2.54
 74
     0
 49
-2.54
 74
     0
  0
LTYPE
  5
72
330
5
100
AcDbSymbolTableRecord
100
AcDbLinetypeTableRecord
  2
DOT2
 70
     0
  3
Dot (.5x) ........................................
 72
    65
 73
     2
 40
0.635
 49
0.0
 74
     0
 49
-0.635
 74
     0
  0
ENDTAB
  0
TABLE
  2
LAYER
  5
2
330
0
100
AcDbSymbolTable
 70
    17
  0
LAYER
  5
10
330
2
100
AcDbSymbolTableRecord
100
AcDbLayerTableRecord
  2
0
 70
     0
 62
     7
  6
Continuous
370
    -3
390
F
  0
LAYER
  5
73
330
2
100
AcDbSymbolTableRecord
100
AcDbLayerTableRecord
  2
FORMAT
 70
     0
 62
     7
  6
Continuous
370
    -3
390
F
  0
LAYER
  5
74
330
2
100
AcDbSymbolTableRecord
100
AcDbLayerTableRecord
  2
YARDIMCI_GEOMETRI
 70
     0
 62
    -6
  6
Continuous
290
     0
370
    -3
390
F
  0
LAYER
  5
75
330
2
100
AcDbSymbolTableRecord
100
AcDbLayerTableRecord
  2
SAYFA_CERCEVESI
 70
     0
 62
     7
  6
Continuous
370
    25
390
F
  0
LAYER
  5
76
330
2
100
AcDbSymbolTableRecord
100
AcDbLayerTableRecord
  2
ANTET
 70
     0
 62
     7
  6
Continuous
370
    -3
390
F
  0
LAYER
  5
77
330
2
100
AcDbSymbolTableRecord
100
AcDbLayerTableRecord
  2
OLCU
 70
     0
 62
   150
  6
Continuous
370
    -3
390
F
  0
LAYER
  5
78
330
2
100
AcDbSymbolTableRecord
100
AcDbLayerTableRecord
  2
METIN
 70
     0
 62
    96
  6
Continuous
370
    -3
390
F
  0
LAYER
  5
79
330
2
100
AcDbSymbolTableRecord
100
AcDbLayerTableRecord
  2
BALON
 70
     0
 62
     5
  6
Continuous
370
    -3
390
F
  0
LAYER
  5
7A
330
2
100
AcDbSymbolTableRecord
100
AcDbLayerTableRecord
  2
VURGU
 70
     0
 62
     7
  6
Continuous
370
    -3
390
F
  0
LAYER
  5
7B
330
2
100
AcDbSymbolTableRecord
100
AcDbLayerTableRecord
  2
SILIK
 70
     0
 62
     7
  6
Continuous
370
    -3
390
F
  0
LAYER
  5
7C
330
2
100
AcDbSymbolTableRecord
100
AcDbLayerTableRecord
  2
MODEL
 70
     0
 62
     7
  6
Continuous
370
    -3
390
F
  0
LAYER
  5
7D
330
2
100
AcDbSymbolTableRecord
100
AcDbLayerTableRecord
  2
DETAYLANDıRMA
 70
     0
 62
   190
  6
Continuous
370
    -3
390
F
  0
LAYER
  5
7E
330
2
100
AcDbSymbolTableRecord
100
AcDbLayerTableRecord
  2
TOLERANS
 70
     0
 62
   230
  6
Continuous
370
    -3
390
F
  0
LAYER
  5
7F
330
2
100
AcDbSymbolTableRecord
100
AcDbLayerTableRecord
  2
MERKEZ_CIZGILERI
 70
     0
 62
    30
  6
Continuous
370
    -3
390
F
  0
LAYER
  5
80
330
2
100
AcDbSymbolTableRecord
100
AcDbLayerTableRecord
  2
KESIT-DETAY_CIZGILERI
 70
     0
 62
     7
  6
Continuous
370
    -3
390
F
  0
LAYER
  5
81
330
2
100
AcDbSymbolTableRecord
100
AcDbLayerTableRecord
  2
\U+041E\U+0421\U+0415\U+0412\U+042B\U+0415
 70
     0
 62
     7
  6
Continuous
370
    -3
390
F
  0
LAYER
  5
82
330
2
100
AcDbSymbolTableRecord
100
AcDbLayerTableRecord
  2
\U+0412\U+041E\U+0414\U+042F\U+041D\U+042B\U+0415_\U+0417\U+041D\U+0410\U+041A\U+0418
 70
     0
 62
    11
  6
Continuous
370
    -3
390
F
  0
ENDTAB
  0
TABLE
  2
STYLE
  5
3
330
0
100
AcDbSymbolTable
 70
     1
  0
STYLE
  5
11
330
3
100
AcDbSymbolTableRecord
100
AcDbTextStyleTableRecord
  2
Standard
 70
     0
 40
0.0
 41
1.0
 50
0.0
 71
     0
 42
3.5
  3
txt
  4

  0
ENDTAB
  0
TABLE
  2
VIEW
  5
6
330
0
100
AcDbSymbolTable
 70
     0
  0
ENDTAB
  0
TABLE
  2
UCS
  5
7
330
0
100
AcDbSymbolTable
 70
     0
  0
ENDTAB
  0
TABLE
  2
APPID
  5
9
330
0
100
AcDbSymbolTable
 70
     1
  0
APPID
  5
12
330
9
100
AcDbSymbolTableRecord
100
AcDbRegAppTableRecord
  2
ACAD
 70
     0
  0
ENDTAB
  0
TABLE
  2
DIMSTYLE
  5
A
330
0
100
AcDbSymbolTable
 70
     1
100
AcDbDimStyleTable
  0
DIMSTYLE
105
27
330
A
100
AcDbSymbolTableRecord
100
AcDbDimStyleTableRecord
  2
ISO-25
 70
     0
 41
2.5
 42
0.625
 43
3.75
 44
1.25
 73
     0
 74
     0
 77
     1
 78
     8
140
2.5
141
2.5
143
0.0393700787
147
0.625
171
     3
172
     1
178
     0
271
     2
272
     2
274
     3
278
    44
283
     0
284
     8
340
11
  0
ENDTAB
  0
TABLE
  2
BLOCK_RECORD
  5
1
330
0
100
AcDbSymbolTable
 70
     6
  0
BLOCK_RECORD
  5
1F
330
1
100
AcDbSymbolTableRecord
100
AcDbBlockTableRecord
  2
*Model_Space
340
22
  0
BLOCK_RECORD
  5
1B
330
1
100
AcDbSymbolTableRecord
100
AcDbBlockTableRecord
  2
*Paper_Space
340
1E
  0
BLOCK_RECORD
  5
23
330
1
100
AcDbSymbolTableRecord
100
AcDbBlockTableRecord
  2
*Paper_Space0
340
26
  0
BLOCK_RECORD
  5
8F
330
1
100
AcDbSymbolTableRecord
100
AcDbBlockTableRecord
  2
SW_CENTERMARKSYMBOL_0
340
0
102
{BLKREFS
331
9A
102
}
  0
BLOCK_RECORD
  5
9B
330
1
100
AcDbSymbolTableRecord
100
AcDbBlockTableRecord
  2
SW_CENTERMARKSYMBOL_1
340
0
102
{BLKREFS
331
A6
102
}
  0
BLOCK_RECORD
  5
A7
330
1
100
AcDbSymbolTableRecord
100
AcDbBlockTableRecord
  2
SW_CENTERMARKSYMBOL_2
340
0
102
{BLKREFS
331
B2
102
}
  0
BLOCK_RECORD
  5
B3
330
1
100
AcDbSymbolTableRecord
100
AcDbBlockTableRecord
  2
SW_CENTERMARKSYMBOL_3
340
0
102
{BLKREFS
331
BE
102
}
  0
BLOCK_RECORD
  5
BF
330
1
100
AcDbSymbolTableRecord
100
AcDbBlockTableRecord
  2
SW_CENTERMARKSYMBOL_4
340
0
102
{BLKREFS
331
CA
102
}
  0
ENDTAB
  0
ENDSEC
  0
SECTION
  2
BLOCKS
  0
BLOCK
  5
20
330
1F
100
AcDbEntity
  8
0
100
AcDbBlockBegin
  2
*Model_Space
 70
     0
 10
0.0
 20
0.0
 30
0.0
  3
*Model_Space
  1

  0
ENDBLK
  5
21
330
1F
100
AcDbEntity
  8
0
100
AcDbBlockEnd
  0
BLOCK
  5
1C
330
1B
100
AcDbEntity
 67
     1
  8
0
100
AcDbBlockBegin
  2
*Paper_Space
 70
     0
 10
0.0
 20
0.0
 30
0.0
  3
*Paper_Space
  1

  0
ENDBLK
  5
1D
330
1B
100
AcDbEntity
 67
     1
  8
0
100
AcDbBlockEnd
  0
BLOCK
  5
24
330
23
100
AcDbEntity
  8
0
100
AcDbBlockBegin
  2
*Paper_Space0
 70
     0
 10
0.0
 20
0.0
 30
0.0
  3
*Paper_Space0
  1

  0
ENDBLK
  5
25
330
23
100
AcDbEntity
  8
0
100
AcDbBlockEnd
  0
BLOCK
  5
90
330
8F
100
AcDbEntity
  8
0
100
AcDbBlockBegin
  2
SW_CENTERMARKSYMBOL_0
 70
     0
 10
0.0
 20
0.0
 30
0.0
  3
SW_CENTERMARKSYMBOL_0
  1

  0
LINE
  5
92
330
8F
100
AcDbEntity
  8
FORMAT
 62
     0
100
AcDbLine
 10
0.0
 20
0.0
 30
0.0
 11
0.0
 21
2.5
 31
0.0
  0
LINE
  5
93
330
8F
100
AcDbEntity
  8
FORMAT
 62
     0
100
AcDbLine
 10
0.0
 20
0.0
 30
0.0
 11
-2.5
 21
0.0
 31
0.0
  0
LINE
  5
94
330
8F
100
AcDbEntity
  8
FORMAT
 62
     0
100
AcDbLine
 10
0.0
 20
0.0
 30
0.0
 11
0.0
 21
-2.5
 31
0.0
  0
LINE
  5
95
330
8F
100
AcDbEntity
  8
FORMAT
 62
     0
100
AcDbLine
 10
0.0
 20
0.0
 30
0.0
 11
2.5
 21
0.0
 31
0.0
  0
LINE
  5
96
330
8F
100
AcDbEntity
  8
FORMAT
 62
     0
100
AcDbLine
 10
0.0
 20
5.0
 30
0.0
 11
0.0
 21
67.5
 31
0.0
  0
LINE
  5
97
330
8F
100
AcDbEntity
  8
FORMAT
 62
     0
100
AcDbLine
 10
-5.0
 20
0.0
 30
0.0
 11
-67.5
 21
0.0
 31
0.0
  0
LINE
  5
98
330
8F
100
AcDbEntity
  8
FORMAT
 62
     0
100
AcDbLine
 10
0.0
 20
-5.0
 30
0.0
 11
0.0
 21
-67.5
 31
0.0
  0
LINE
  5
99
330
8F
100
AcDbEntity
  8
FORMAT
 62
     0
100
AcDbLine
 10
5.0
 20
0.0
 30
0.0
 11
67.5
 21
0.0
 31
0.0
  0
ENDBLK
  5
91
330
8F
100
AcDbEntity
  8
0
100
AcDbBlockEnd
  0
BLOCK
  5
9C
330
9B
100
AcDbEntity
  8
0
100
AcDbBlockBegin
  2
SW_CENTERMARKSYMBOL_1
 70
     0
 10
0.0
 20
0.0
 30
0.0
  3
SW_CENTERMARKSYMBOL_1
  1

  0
LINE
  5
9E
330
9B
100
AcDbEntity
  8
FORMAT
 62
     0
100
AcDbLine
 10
0.0
 20
0.0
 30
0.0
 11
0.0
 21
2.5
 31
0.0
  0
LINE
  5
9F
330
9B
100
AcDbEntity
  8
FORMAT
 62
     0
100
AcDbLine
 10
0.0
 20
0.0
 30
0.0
 11
-2.5
 21
0.0
 31
0.0
  0
LINE
  5
A0
330
9B
100
AcDbEntity
  8
FORMAT
 62
     0
100
AcDbLine
 10
0.0
 20
0.0
 30
0.0
 11
0.0
 21
-2.5
 31
0.0
  0
LINE
  5
A1
330
9B
100
AcDbEntity
  8
FORMAT
 62
     0
100
AcDbLine
 10
0.0
 20
0.0
 30
0.0
 11
2.5
 21
0.0
 31
0.0
  0
LINE
  5
A2
330
9B
100
AcDbEntity
  8
FORMAT
 62
     0
100
AcDbLine
 10
0.0
 20
5.0
 30
0.0
 11
0.0
 21
10.5
 31
0.0
  0
LINE
  5
A3
330
9B
100
AcDbEntity
  8
FORMAT
 62
     0
100
AcDbLine
 10
-5.0
 20
0.0
 30
0.0
 11
-10.5
 21
0.0
 31
0.0
  0
LINE
  5
A4
330
9B
100
AcDbEntity
  8
FORMAT
 62
     0
100
AcDbLine
 10
0.0
 20
-5.0
 30
0.0
 11
0.0
 21
-10.5
 31
0.0
  0
LINE
  5
A5
330
9B
100
AcDbEntity
  8
FORMAT
 62
     0
100
AcDbLine
 10
5.0
 20
0.0
 30
0.0
 11
10.5
 21
0.0
 31
0.0
  0
ENDBLK
  5
9D
330
9B
100
AcDbEntity
  8
0
100
AcDbBlockEnd
  0
BLOCK
  5
A8
330
A7
100
AcDbEntity
  8
0
100
AcDbBlockBegin
  2
SW_CENTERMARKSYMBOL_2
 70
     0
 10
0.0
 20
0.0
 30
0.0
  3
SW_CENTERMARKSYMBOL_2
  1

  0
LINE
  5
AA
330
A7
100
AcDbEntity
  8
FORMAT
 62
     0
100
AcDbLine
 10
0.0
 20
0.0
 30
0.0
 11
0.0
 21
2.5
 31
0.0
  0
LINE
  5
AB
330
A7
100
AcDbEntity
  8
FORMAT
 62
     0
100
AcDbLine
 10
0.0
 20
0.0
 30
0.0
 11
-2.5
 21
0.0
 31
0.0
  0
LINE
  5
AC
330
A7
100
AcDbEntity
  8
FORMAT
 62
     0
100
AcDbLine
 10
0.0
 20
0.0
 30
0.0
 11
0.0
 21
-2.5
 31
0.0
  0
LINE
  5
AD
330
A7
100
AcDbEntity
  8
FORMAT
 62
     0
100
AcDbLine
 10
0.0
 20
0.0
 30
0.0
 11
2.5
 21
0.0
 31
0.0
  0
LINE
  5
AE
330
A7
100
AcDbEntity
  8
FORMAT
 62
     0
100
AcDbLine
 10
0.0
 20
5.0
 30
0.0
 11
0.0
 21
10.5
 31
0.0
  0
LINE
  5
AF
330
A7
100
AcDbEntity
  8
FORMAT
 62
     0
100
AcDbLine
 10
-5.0
 20
0.0
 30
0.0
 11
-10.5
 21
0.0
 31
0.0
  0
LINE
  5
B0
330
A7
100
AcDbEntity
  8
FORMAT
 62
     0
100
AcDbLine
 10
0.0
 20
-5.0
 30
0.0
 11
0.0
 21
-10.5
 31
0.0
  0
LINE
  5
B1
330
A7
100
AcDbEntity
  8
FORMAT
 62
     0
100
AcDbLine
 10
5.0
 20
0.0
 30
0.0
 11
10.5
 21
0.0
 31
0.0
  0
ENDBLK
  5
A9
330
A7
100
AcDbEntity
  8
0
100
AcDbBlockEnd
  0
BLOCK
  5
B4
330
B3
100
AcDbEntity
  8
0
100
AcDbBlockBegin
  2
SW_CENTERMARKSYMBOL_3
 70
     0
 10
0.0
 20
0.0
 30
0.0
  3
SW_CENTERMARKSYMBOL_3
  1

  0
LINE
  5
B6
330
B3
100
AcDbEntity
  8
FORMAT
 62
     0
100
AcDbLine
 10
0.0
 20
0.0
 30
0.0
 11
0.0
 21
2.5
 31
0.0
  0
LINE
  5
B7
330
B3
100
AcDbEntity
  8
FORMAT
 62
     0
100
AcDbLine
 10
0.0
 20
0.0
 30
0.0
 11
-2.5
 21
0.0
 31
0.0
  0
LINE
  5
B8
330
B3
100
AcDbEntity
  8
FORMAT
 62
     0
100
AcDbLine
 10
0.0
 20
0.0
 30
0.0
 11
0.0
 21
-2.5
 31
0.0
  0
LINE
  5
B9
330
B3
100
AcDbEntity
  8
FORMAT
 62
     0
100
AcDbLine
 10
0.0
 20
0.0
 30
0.0
 11
2.5
 21
0.0
 31
0.0
  0
LINE
  5
BA
330
B3
100
AcDbEntity
  8
FORMAT
 62
     0
100
AcDbLine
 10
0.0
 20
5.0
 30
0.0
 11
0.0
 21
10.5
 31
0.0
  0
LINE
  5
BB
330
B3
100
AcDbEntity
  8
FORMAT
 62
     0
100
AcDbLine
 10
-5.0
 20
0.0
 30
0.0
 11
-10.5
 21
0.0
 31
0.0
  0
LINE
  5
BC
330
B3
100
AcDbEntity
  8
FORMAT
 62
     0
100
AcDbLine
 10
0.0
 20
-5.0
 30
0.0
 11
0.0
 21
-10.5
 31
0.0
  0
LINE
  5
BD
330
B3
100
AcDbEntity
  8
FORMAT
 62
     0
100
AcDbLine
 10
5.0
 20
0.0
 30
0.0
 11
10.5
 21
0.0
 31
0.0
  0
ENDBLK
  5
B5
330
B3
100
AcDbEntity
  8
0
100
AcDbBlockEnd
  0
BLOCK
  5
C0
330
BF
100
AcDbEntity
  8
0
100
AcDbBlockBegin
  2
SW_CENTERMARKSYMBOL_4
 70
     0
 10
0.0
 20
0.0
 30
0.0
  3
SW_CENTERMARKSYMBOL_4
  1

  0
LINE
  5
C2
330
BF
100
AcDbEntity
  8
FORMAT
 62
     0
100
AcDbLine
 10
0.0
 20
0.0
 30
0.0
 11
0.0
 21
2.5
 31
0.0
  0
LINE
  5
C3
330
BF
100
AcDbEntity
  8
FORMAT
 62
     0
100
AcDbLine
 10
0.0
 20
0.0
 30
0.0
 11
-2.5
 21
0.0
 31
0.0
  0
LINE
  5
C4
330
BF
100
AcDbEntity
  8
FORMAT
 62
     0
100
AcDbLine
 10
0.0
 20
0.0
 30
0.0
 11
0.0
 21
-2.5
 31
0.0
  0
LINE
  5
C5
330
BF
100
AcDbEntity
  8
FORMAT
 62
     0
100
AcDbLine
 10
0.0
 20
0.0
 30
0.0
 11
2.5
 21
0.0
 31
0.0
  0
LINE
  5
C6
330
BF
100
AcDbEntity
  8
FORMAT
 62
     0
100
AcDbLine
 10
0.0
 20
5.0
 30
0.0
 11
0.0
 21
10.5
 31
0.0
  0
LINE
  5
C7
330
BF
100
AcDbEntity
  8
FORMAT
 62
     0
100
AcDbLine
 10
-5.0
 20
0.0
 30
0.0
 11
-10.5
 21
0.0
 31
0.0
  0
LINE
  5
C8
330
BF
100
AcDbEntity
  8
FORMAT
 62
     0
100
AcDbLine
 10
0.0
 20
-5.0
 30
0.0
 11
0.0
 21
-10.5
 31
0.0
  0
LINE
  5
C9
330
BF
100
AcDbEntity
  8
FORMAT
 62
     0
100
AcDbLine
 10
5.0
 20
0.0
 30
0.0
 11
10.5
 21
0.0
 31
0.0
  0
ENDBLK
  5
C1
330
BF
100
AcDbEntity
  8
0
100
AcDbBlockEnd
  0
ENDSEC
  0
SECTION
  2
ENTITIES
  0
CIRCLE
  5
83
330
1F
100
AcDbEntity
  8
0
  6
Continuous
 62
     7
370
    25
100
AcDbCircle
 10
137.8667640332
 20
59.1138469371
 30
0.0
 40
9.000000000000028
  0
CIRCLE
  5
84
330
1F
100
AcDbEntity
  8
0
  6
Continuous
 62
     7
370
    25
100
AcDbCircle
 10
137.8667640332
 20
148.0138469371
 30
0.0
 40
9.0
  0
CIRCLE
  5
85
330
1F
100
AcDbEntity
  8
0
  6
Continuous
 62
     7
370
    25
100
AcDbCircle
 10
137.8667640332
 20
103.5638469371
 30
0.0
 40
64.0
  0
CIRCLE
  5
86
330
1F
100
AcDbEntity
  8
0
  6
Continuous
 62
     7
370
    25
100
AcDbCircle
 10
137.8667640332
 20
103.5638469371
 30
0.0
 40
26.5
  0
CIRCLE
  5
87
330
1F
100
AcDbEntity
  8
0
  6
Continuous
 62
     7
370
    25
100
AcDbCircle
 10
182.3167640332
 20
103.5638469371
 30
0.0
 40
9.0
  0
CIRCLE
  5
88
330
1F
100
AcDbEntity
  8
0
  6
Continuous
 62
     7
370
    25
100
AcDbCircle
 10
93.4167640332
 20
103.5638469371
 30
0.0
 40
9.0
  0
CIRCLE
  5
89
330
1F
100
AcDbEntity
  8
0
  6
Continuous
 62
     7
370
    25
100
AcDbCircle
 10
137.8667640332
 20
103.5638469371
 30
0.0
 40
25.5
  0
CIRCLE
  5
8A
330
1F
100
AcDbEntity
  8
0
  6
Continuous
 62
     7
370
    25
100
AcDbCircle
 10
137.8667640332
 20
103.5638469371
 30
0.0
 40
65.0
  0
CIRCLE
  5
8B
330
1F
100
AcDbEntity
  8
0
  6
Continuous
 62
     7
370
    25
100
AcDbCircle
 10
137.8667640332
 20
148.0138469371
 30
0.0
 40
8.0
  0
CIRCLE
  5
8C
330
1F
100
AcDbEntity
  8
0
  6
Continuous
 62
     7
370
    25
100
AcDbCircle
 10
93.4167640332
 20
103.5638469371
 30
0.0
 40
8.000000000000014
  0
CIRCLE
  5
8D
330
1F
100
AcDbEntity
  8
0
  6
Continuous
 62
     7
370
    25
100
AcDbCircle
 10
182.3167640332
 20
103.5638469371
 30
0.0
 40
8.000000000000028
  0
CIRCLE
  5
8E
330
1F
100
AcDbEntity
  8
0
  6
Continuous
 62
     7
370
    25
100
AcDbCircle
 10
137.8667640332
 20
59.1138469371
 30
0.0
 40
8.000000000000028
  0
INSERT
  5
9A
330
1F
100
AcDbEntity
  8
FORMAT
 62
     7
100
AcDbBlockReference
  2
SW_CENTERMARKSYMBOL_0
 10
137.8667640332
 20
103.5638469371
 30
0.0
  0
INSERT
  5
A6
330
1F
100
AcDbEntity
  8
FORMAT
 62
     7
100
AcDbBlockReference
  2
SW_CENTERMARKSYMBOL_1
 10
137.8667640332
 20
148.0138469371
 30
0.0
  0
INSERT
  5
B2
330
1F
100
AcDbEntity
  8
FORMAT
 62
     7
100
AcDbBlockReference
  2
SW_CENTERMARKSYMBOL_2
 10
182.3167640332
 20
103.5638469371
 30
0.0
  0
INSERT
  5
BE
330
1F
100
AcDbEntity
  8
FORMAT
 62
     7
100
AcDbBlockReference
  2
SW_CENTERMARKSYMBOL_3
 10
137.8667640332
 20
59.1138469371
 30
0.0
  0
INSERT
  5
CA
330
1F
100
AcDbEntity
  8
FORMAT
 62
     7
100
AcDbBlockReference
  2
SW_CENTERMARKSYMBOL_4
 10
93.4167640332
 20
103.5638469371
 30
0.0
  0
LINE
  5
CB
330
1F
100
AcDbEntity
  8
0
  6
Continuous
 62
     7
370
    25
100
AcDbLine
 10
-7.6430524831
 20
168.5638469371
 30
0.0
 11
-21.6430524831
 21
168.5638469371
 31
0.0
  0
LINE
  5
CC
330
1F
100
AcDbEntity
  8
0
  6
Continuous
 62
     7
370
    25
100
AcDbLine
 10
-21.6430524831
 20
38.5638469371
 30
0.0
 11
-7.6430524831
 21
38.5638469371
 31
0.0
  0
ARC
  5
CD
330
1F
100
AcDbEntity
  8
0
  6
Continuous
 62
     7
370
    25
100
AcDbCircle
 10
-7.6430524831
 20
39.5638469371
 30
0.0
 40
1.0
100
AcDbArc
 50
270.0
 51
0.0
  0
ARC
  5
CE
330
1F
100
AcDbEntity
  8
0
  6
Continuous
 62
     7
370
    25
100
AcDbCircle
 10
-7.6430524831
 20
167.5638469371
 30
0.0
 40
1.0
100
AcDbArc
 50
0.0
 51
90.0
  0
ARC
  5
CF
330
1F
100
AcDbEntity
  8
0
  6
Continuous
 62
     7
370
    25
100
AcDbCircle
 10
-21.6430524831
 20
39.5638469371
 30
0.0
 40
1.0
100
AcDbArc
 50
180.0
 51
270.0
  0
ARC
  5
D0
330
1F
100
AcDbEntity
  8
0
  6
Continuous
 62
     7
370
    25
100
AcDbCircle
 10
-21.6430524831
 20
167.5638469371
 30
0.0
 40
1.0
100
AcDbArc
 50
90.0
 51
180.0
  0
LINE
  5
D1
330
1F
100
AcDbEntity
  8
0
  6
Continuous
 62
     7
370
    25
100
AcDbLine
 10
-6.6430524831
 20
103.5638469371
 30
0.0
 11
-6.6430524831
 21
39.5638469371
 31
0.0
  0
LINE
  5
D2
330
1F
100
AcDbEntity
  8
0
  6
Continuous
 62
     7
370
    25
100
AcDbLine
 10
-6.6430524831
 20
167.5638469371
 30
0.0
 11
-6.6430524831
 21
103.5638469371
 31
0.0
  0
LINE
  5
D3
330
1F
100
AcDbEntity
  8
0
  6
Continuous
 62
     7
370
    25
100
AcDbLine
 10
-22.6430524831
 20
103.5638469371
 30
0.0
 11
-22.6430524831
 21
167.5638469371
 31
0.0
  0
LINE
  5
D4
330
1F
100
AcDbEntity
  8
0
  6
Continuous
 62
     7
370
    25
100
AcDbLine
 10
-22.6430524831
 20
39.5638469371
 30
0.0
 11
-22.6430524831
 21
103.5638469371
 31
0.0
  0
LINE
  5
D5
330
1F
100
AcDbEntity
  8
0
  6
Continuous
 62
     1
370
    25
100
AcDbLine
 10
-21.6430524831
 20
103.5638469371
 30
0.0
 11
-21.6430524831
 21
38.5638469371
 31
0.0
  0
LINE
  5
D6
330
1F
100
AcDbEntity
  8
0
  6
Continuous
 62
     1
370
    25
100
AcDbLine
 10
-21.6430524831
 20
168.5638469371
 30
0.0
 11
-21.6430524831
 21
103.5638469371
 31
0.0
  0
LINE
  5
D7
330
1F
100
AcDbEntity
  8
0
  6
Continuous
 62
     1
370
    25
100
AcDbLine
 10
-7.6430524831
 20
103.5638469371
 30
0.0
 11
-7.6430524831
 21
168.5638469371
 31
0.0
  0
LINE
  5
D8
330
1F
100
AcDbEntity
  8
0
  6
Continuous
 62
     1
370
    25
100
AcDbLine
 10
-7.6430524831
 20
38.5638469371
 30
0.0
 11
-7.6430524831
 21
103.5638469371
 31
0.0
  0
LINE
  5
D9
330
1F
100
AcDbEntity
  8
0
  6
Continuous
 62
     7
370
    25
100
AcDbLine
 10
271.7212106708
 20
38.5638469371
 30
0.0
 11
285.7212106708
 21
38.5638469371
 31
0.0
  0
LINE
  5
DA
330
1F
100
AcDbEntity
  8
0
  6
Continuous
 62
     7
370
    25
100
AcDbLine
 10
285.7212106708
 20
168.5638469371
 30
0.0
 11
271.7212106708
 21
168.5638469371
 31
0.0
  0
ARC
  5
DB
330
1F
100
AcDbEntity
  8
0
  6
Continuous
 62
     7
370
    25
100
AcDbCircle
 10
271.7212106708
 20
167.5638469371
 30
0.0
 40
1.0
100
AcDbArc
 50
90.0
 51
180.0
  0
ARC
  5
DC
330
1F
100
AcDbEntity
  8
0
  6
Continuous
 62
     7
370
    25
100
AcDbCircle
 10
271.7212106708
 20
39.5638469371
 30
0.0
 40
1.0
100
AcDbArc
 50
180.0
 51
270.0
  0
ARC
  5
DD
330
1F
100
AcDbEntity
  8
0
  6
Continuous
 62
     7
370
    25
100
AcDbCircle
 10
285.7212106708
 20
167.5638469371
 30
0.0
 40
1.0
100
AcDbArc
 50
0.0
 51
90.0
  0
ARC
  5
DE
330
1F
100
AcDbEntity
  8
0
  6
Continuous
 62
     7
370
    25
100
AcDbCircle
 10
285.7212106708
 20
39.5638469371
 30
0.0
 40
1.0
100
AcDbArc
 50
270.0
 51
0.0
  0
LINE
  5
DF
330
1F
100
AcDbEntity
  8
0
  6
Continuous
 62
     7
370
    25
100
AcDbLine
 10
270.7212106708
 20
39.5638469371
 30
0.0
 11
270.7212106708
 21
167.5638469371
 31
0.0
  0
LINE
  5
E0
330
1F
100
AcDbEntity
  8
0
  6
Continuous
 62
     7
370
    25
100
AcDbLine
 10
286.7212106708
 20
167.5638469371
 30
0.0
 11
286.7212106708
 21
39.5638469371
 31
0.0
  0
LINE
  5
E1
330
1F
100
AcDbEntity
  8
0
  6
Continuous
 62
     1
370
    25
100
AcDbLine
 10
285.7212106708
 20
38.5638469371
 30
0.0
 11
285.7212106708
 21
168.5638469371
 31
0.0
  0
LINE
  5
E2
330
1F
100
AcDbEntity
  8
0
  6
Continuous
 62
     1
370
    25
100
AcDbLine
 10
271.7212106708
 20
168.5638469371
 30
0.0
 11
271.7212106708
 21
38.5638469371
 31
0.0
  0
LINE
  5
E3
330
1F
100
AcDbEntity
  8
0
  6
Continuous
 62
     7
370
    25
100
AcDbLine
 10
202.8667640332
 20
223.6341666297
 30
0.0
 11
202.8667640332
 21
237.6341666297
 31
0.0
  0
LINE
  5
E4
330
1F
100
AcDbEntity
  8
0
  6
Continuous
 62
     7
370
    25
100
AcDbLine
 10
72.8667640332
 20
237.6341666297
 30
0.0
 11
72.8667640332
 21
223.6341666297
 31
0.0
  0
ARC
  5
E5
330
1F
100
AcDbEntity
  8
0
  6
Continuous
 62
     7
370
    25
100
AcDbCircle
 10
73.8667640332
 20
223.6341666297
 30
0.0
 40
1.0
100
AcDbArc
 50
180.0
 51
270.0
  0
ARC
  5
E6
330
1F
100
AcDbEntity
  8
0
  6
Continuous
 62
     7
370
    25
100
AcDbCircle
 10
201.8667640332
 20
223.6341666297
 30
0.0
 40
1.0
100
AcDbArc
 50
270.0
 51
0.0
  0
ARC
  5
E7
330
1F
100
AcDbEntity
  8
0
  6
Continuous
 62
     7
370
    25
100
AcDbCircle
 10
73.8667640332
 20
237.6341666297
 30
0.0
 40
1.0
100
AcDbArc
 50
90.0
 51
180.0
  0
ARC
  5
E8
330
1F
100
AcDbEntity
  8
0
  6
Continuous
 62
     7
370
    25
100
AcDbCircle
 10
201.8667640332
 20
237.6341666297
 30
0.0
 40
1.0
100
AcDbArc
 50
0.0
 51
90.0
  0
LINE
  5
E9
330
1F
100
AcDbEntity
  8
0
  6
Continuous
 62
     7
370
    25
100
AcDbLine
 10
201.8667640332
 20
222.6341666297
 30
0.0
 11
73.8667640334
 21
222.6341666297
 31
0.0
  0
LINE
  5
EA
330
1F
100
AcDbEntity
  8
0
  6
Continuous
 62
     7
370
    25
100
AcDbLine
 10
73.8667640334
 20
238.6341666297
 30
0.0
 11
201.8667640332
 21
238.6341666297
 31
0.0
  0
LINE
  5
EB
330
1F
100
AcDbEntity
  8
0
  6
Continuous
 62
     1
370
    25
100
AcDbLine
 10
202.8667640332
 20
237.6341666297
 30
0.0
 11
72.8667640332
 21
237.6341666297
 31
0.0
  0
LINE
  5
EC
330
1F
100
AcDbEntity
  8
0
  6
Continuous
 62
     1
370
    25
100
AcDbLine
 10
72.8667640332
 20
223.6341666297
 30
0.0
 11
202.8667640332
 21
223.6341666297
 31
0.0
  0
LINE
  5
ED
330
1F
100
AcDbEntity
  8
0
  6
Continuous
 62
     7
370
    25
100
AcDbLine
 10
72.8667640332
 20
-54.4673726295
 30
0.0
 11
72.8667640332
 21
-68.4673726295
 31
0.0
  0
LINE
  5
EE
330
1F
100
AcDbEntity
  8
0
  6
Continuous
 62
     7
370
    25
100
AcDbLine
 10
202.8667640332
 20
-68.4673726295
 30
0.0
 11
202.8667640332
 21
-54.4673726295
 31
0.0
  0
ARC
  5
EF
330
1F
100
AcDbEntity
  8
0
  6
Continuous
 62
     7
370
    25
100
AcDbCircle
 10
201.8667640332
 20
-54.4673726295
 30
0.0
 40
1.0
100
AcDbArc
 50
0.0
 51
90.0
  0
ARC
  5
F0
330
1F
100
AcDbEntity
  8
0
  6
Continuous
 62
     7
370
    25
100
AcDbCircle
 10
73.8667640332
 20
-54.4673726295
 30
0.0
 40
1.0
100
AcDbArc
 50
90.0
 51
180.0
  0
ARC
  5
F1
330
1F
100
AcDbEntity
  8
0
  6
Continuous
 62
     7
370
    25
100
AcDbCircle
 10
201.8667640332
 20
-68.4673726295
 30
0.0
 40
1.0
100
AcDbArc
 50
270.0
 51
0.0
  0
ARC
  5
F2
330
1F
100
AcDbEntity
  8
0
  6
Continuous
 62
     7
370
    25
100
AcDbCircle
 10
73.8667640332
 20
-68.4673726295
 30
0.0
 40
1.0
100
AcDbArc
 50
180.0
 51
270.0
  0
LINE
  5
F3
330
1F
100
AcDbEntity
  8
0
  6
Continuous
 62
     7
370
    25
100
AcDbLine
 10
73.8667640334
 20
-53.4673726295
 30
0.0
 11
201.8667640332
 21
-53.4673726295
 31
0.0
  0
LINE
  5
F4
330
1F
100
AcDbEntity
  8
0
  6
Continuous
 62
     7
370
    25
100
AcDbLine
 10
201.8667640332
 20
-69.4673726295
 30
0.0
 11
73.8667640334
 21
-69.4673726295
 31
0.0
  0
LINE
  5
F5
330
1F
100
AcDbEntity
  8
0
  6
Continuous
 62
     1
370
    25
100
AcDbLine
 10
72.8667640332
 20
-68.4673726295
 30
0.0
 11
202.8667640332
 21
-68.4673726295
 31
0.0
  0
LINE
  5
F6
330
1F
100
AcDbEntity
  8
0
  6
Continuous
 62
     1
370
    25
100
AcDbLine
 10
202.8667640332
 20
-54.4673726295
 30
0.0
 11
72.8667640332
 21
-54.4673726295
 31
0.0
  0
SPLINE
  5
F7
330
1F
100
AcDbEntity
  8
0
  6
Continuous
 62
     7
370
    25
100
AcDbSpline
210
0.0
220
0.0
230
1.0
 70
     8
 71
     3
 72
    79
 73
    75
 74
     0
 42
0.00000001
 43
0.00000001
 40
0.0
 40
0.0
 40
0.0
 40
0.0
 40
0.0092546483205717
 40
0.0231955950244289
 40
0.0371520680451418
 40
0.0511285497556784
 40
0.0651279715993842
 40
0.0791516705917119
 40
0.0931995218098358
 40
0.1072701983919182
 40
0.1213614989457907
 40
0.1354706850830521
 40
0.1495947850365798
 40
0.1637308371171303
 40
0.1778760637406242
 40
0.1920279795369425
 40
0.2061844445544817
 40
0.2203436764182677
 40
0.2345042348996191
 40
0.2486647809169772
 40
0.2628244319995338
 40
0.2769826270601887
 40
0.2911389823821018
 40
0.3052932573564412
 40
0.3194453250316878
 40
0.3335951474571659
 40
0.3477427554653714
 40
0.3618882323752039
 40
0.3760317010484424
 40
0.3901733137472959
 40
0.4043132442901664
 40
0.4184516820662473
 40
0.4325888275353513
 40
0.4467248889009888
 40
0.4608600796992166
 40
0.4749946170916713
 40
0.4891287206888232
 40
0.5032626117589146
 40
0.5173965127001875
 40
0.5315305944781662
 40
0.5456650586154173
 40
0.5598001289991467
 40
0.5739360293107475
 40
0.5880729823933375
 40
0.6022112093061635
 40
0.6163509279294829
 40
0.6304923509607796
 40
0.6446356831091532
 40
0.6587811172522433
 40
0.6729288292685448
 40
0.6870789711977972
 40
0.701231662314905
 40
0.7153869776327574
 40
0.7295449332843305
 40
0.743705468189091
 40
0.7578684214067367
 40
0.7720335046602186
 40
0.7862002697251713
 40
0.8003680708121
 40
0.8145357627283295
 40
0.8287019823157316
 40
0.8428651215950053
 40
0.857023205252428
 40
0.8711738810581885
 40
0.8853144434192205
 40
0.8994419047734616
 40
0.9135531291490647
 40
0.9276450377479262
 40
0.9417148864473518
 40
0.9557605994065321
 40
0.9697811235433572
 40
0.9837767503134746
 40
0.9977493407309721
 40
1.0
 40
1.0
 40
1.0
 40
1.0
 10
332.1925574640481
 20
0.871343039682261
 30
0.0
 10
331.8625385947219
 20
1.002546556201488
 30
0.0
 10
331.0353884126569
 20
1.331391427399443
 30
0.0
 10
329.6542413660446
 20
1.741682115188887
 30
0.0
 10
328.0594372825699
 20
2.115958640780465
 30
0.0
 10
326.4179950892839
 20
2.383022061296904
 30
0.0
 10
324.7351025246368
 20
2.547324755481271
 30
0.0
 10
323.0129073823157
 20
2.60704539592687
 30
0.0
 10
321.2545706463662
 20
2.562259374568922
 30
0.0
 10
319.4631682932725
 20
2.412782461261524
 30
0.0
 10
317.6419616738183
 20
2.158778904300572
 30
0.0
 10
315.794291214387
 20
1.800614881740083
 30
0.0
 10
313.9235684018468
 20
1.338902576625882
 30
0.0
 10
312.0332434869518
 20
0.774483033210642
 30
0.0
 10
310.126785026271
 20
0.1084185470914475
 30
0.0
 10
308.2076629107033
 20
-0.6580212100434288
 30
0.0
 10
306.2793370051598
 20
-1.523372436055923
 30
0.0
 10
304.345249806329
 20
-2.48598982652224
 30
0.0
 10
302.4088316699159
 20
-3.544052346227469
 30
0.0
 10
300.473489900965
 20
-4.695574960216351
 30
0.0
 10
298.5426028778595
 20
-5.938418771574804
 30
0.0
 10
296.6195099270308
 20
-7.270304997907908
 30
0.0
 10
294.7075191392102
 20
-8.688816055125566
 30
0.0
 10
292.8099103749447
 20
-10.19139688915979
 30
0.0
 10
290.9299328921147
 20
-11.77535885205112
 30
0.0
 10
289.0708024108636
 20
-13.43788347585706
 30
0.0
 10
287.2356976700361
 20
-15.17602630219517
 30
0.0
 10
285.4277565518771
 20
-16.98672087775324
 30
0.0
 10
283.6500718599697
 20
-18.86678298766498
 30
0.0
 10
281.9056868344509
 20
-20.81291516922639
 30
0.0
 10
280.1975904826598
 20
-22.82171152668402
 30
0.0
 10
278.5287127951968
 20
-24.88966285227971
 30
0.0
 10
276.9019199085852
 20
-27.01316204794025
 30
0.0
 10
275.3200092672737
 20
-29.18850983471373
 30
0.0
 10
273.7857048300914
 20
-31.41192073227782
 30
0.0
 10
272.3016523596714
 20
-33.67952928774753
 30
0.0
 10
270.8704148277283
 20
-35.98739653118718
 30
0.0
 10
269.4944679647095
 20
-38.33151663349351
 30
0.0
 10
268.1761976002952
 20
-40.70782081821824
 30
0.0
 10
266.9178942739945
 20
-43.1121858639799
 30
0.0
 10
265.7217485078585
 20
-45.54044249880256
 30
0.0
 10
264.5898458340121
 20
-47.98838575536513
 30
0.0
 10
263.5241644899686
 20
-50.45178065994234
 30
0.0
 10
262.5265729187204
 20
-52.9263683100809
 30
0.0
 10
261.5988268768756
 20
-55.40787321680948
 30
0.0
 10
260.7425668171131
 20
-57.89201061985118
 30
0.0
 10
259.9593155513859
 20
-60.37449373535678
 30
0.0
 10
259.2504761970801
 20
-62.85104089131348
 30
0.0
 10
258.6173304027723
 20
-65.31738250037105
 30
0.0
 10
258.0610368425756
 20
-67.7692678138266
 30
0.0
 10
257.5826299576066
 20
-70.20247139416918
 30
0.0
 10
257.1830189090027
 20
-72.61279923751934
 30
0.0
 10
256.8629866881729
 20
-74.99609447250663
 30
0.0
 10
256.6231893056053
 20
-77.34824256026107
 30
0.0
 10
256.4641549487262
 20
-79.66517592383231
 30
0.0
 10
256.3862829617019
 20
-81.94287794796517
 30
0.0
 10
256.3898424564725
 20
-84.17738631785552
 30
0.0
 10
256.4749703175636
 20
-86.36479571143657
 30
0.0
 10
256.6416672994583
 20
-88.5012468717587
 30
0.0
 10
256.8897915865131
 20
-90.58293342597176
 30
0.0
 10
257.2190518018497
 20
-92.60610932729745
 30
0.0
 10
257.6290017440555
 20
-94.56710365509933
 30
0.0
 10
258.1190317335656
 20
-96.46232103118571
 30
0.0
 10
258.6883578786912
 20
-98.2882442625318
 30
0.0
 10
259.3360099067519
 20
-100.0414476957204
 30
0.0
 10
260.060825645203
 20
-101.7186066837064
 30
0.0
 10
260.8614273785447
 20
-103.3165446474569
 30
0.0
 10
261.7362825485789
 20
-104.8321643839143
 30
0.0
 10
262.6834790936124
 20
-106.2628312955628
 30
0.0
 10
263.7016035693088
 20
-107.6050849256974
 30
0.0
 10
264.7865619244449
 20
-108.8595681355327
 30
0.0
 10
265.9435508853541
 20
-110.0127853817575
 30
0.0
 10
266.8079328907968
 20
-110.8001535583251
 30
0.0
 10
267.3044543582053
 20
-111.1736995113303
 30
0.0
 10
267.3733370213269
 20
-111.2255217219098
 30
0.0
  0
LINE
  5
F8
330
1F
100
AcDbEntity
  8
0
  6
Continuous
 62
     7
370
    25
100
AcDbLine
 10
345.0430676016
 20
-6.2567906717
 30
0.0
 11
335.143572665
 21
-0.541933889
 31
0.0
  0
LINE
  5
F9
330
1F
100
AcDbEntity
  8
0
  6
Continuous
 62
     7
370
    25
100
AcDbLine
 10
270.1488550437
 20
-113.1282859985
 30
0.0
 11
280.0483499803
 21
-118.8431427812
 31
0.0
  0
SPLINE
  5
FA
330
1F
100
AcDbEntity
  8
0
  6
Continuous
 62
     7
370
    25
100
AcDbSpline
210
0.0
220
0.0
230
1.0
 70
     8
 71
     3
 72
    62
 73
    58
 74
     0
 42
0.00000001
 43
0.00000001
 40
0.0
 40
0.0
 40
0.0
 40
0.0
 40
0.0123325676460075
 40
0.030573868357375
 40
0.0488355999356873
 40
0.0671235946860027
 40
0.0854416524814511
 40
0.1037914881345736
 40
0.1221729081968809
 40
0.1405841533291539
 40
0.1590223275178204
 40
0.1774838393854092
 40
0.1959647983374338
 40
0.2144613316105607
 40
0.2329698104334946
 40
0.2514869901195498
 40
0.2700100786123433
 40
0.2885367516377923
 40
0.3070651320373813
 40
0.3255934681429071
 40
0.3441206185550322
 40
0.3626458534801658
 40
0.3811686743911771
 40
0.3996887693007107
 40
0.4182059743350928
 40
0.4367202415763237
 40
0.4552316127016516
 40
0.4737401977410703
 40
0.492246158209699
 40
0.5107496938934076
 40
0.5292510326310114
 40
0.5477504225196477
 40
0.5662481260558435
 40
0.584744415805482
 40
0.6032395712667545
 40
0.6217338766503051
 40
0.6402276193495897
 40
0.658721088912948
 40
0.6772145763576563
 40
0.6957083037407208
 40
0.7142025364088647
 40
0.7326975673078298
 40
0.7511936891024188
 40
0.769691193343441
 40
0.7881903692219702
 40
0.8066915017322034
 40
0.8251948690340027
 40
0.8437007387615266
 40
0.8622093629686025
 40
0.8807209713338721
 40
0.8992357621698096
 40
0.9177538906916757
 40
0.936275453910758
 40
0.9548004714314229
 40
0.9733288613728708
 40
0.9918604106352179
 40
1.0
 40
1.0
 40
1.0
 40
1.0
 10
283.006385159992
 20
-120.2594587989408
 30
0.0
 10
283.342665537292
 20
-120.3927337073511
 30
0.0
 10
284.1763436716314
 20
-120.7231376931257
 30
0.0
 10
285.5644507618158
 20
-121.1339946554965
 30
0.0
 10
287.1600727464081
 20
-121.5064487130365
 30
0.0
 10
288.8022430461813
 20
-121.7717674787006
 30
0.0
 10
290.4858291499689
 20
-121.9342924314434
 30
0.0
 10
292.2086651066631
 20
-121.992235279385
 30
0.0
 10
293.9675914914664
 20
-121.9456664981155
 30
0.0
 10
295.7595289003943
 20
-121.7944077152579
 30
0.0
 10
297.5812144104283
 20
-121.5386265335485
 30
0.0
 10
299.4293061394337
 20
-121.1786933359387
 30
0.0
 10
301.3003917297303
 20
-120.7152242674283
 30
0.0
 10
303.1910204495679
 20
-120.1490642398611
 30
0.0
 10
305.0977235964949
 20
-119.4812791931413
 30
0.0
 10
307.0170313676609
 20
-118.7131422165875
 30
0.0
 10
308.9454841429026
 20
-117.8461203046317
 30
0.0
 10
310.8796397653859
 20
-116.8818617527056
 30
0.0
 10
312.8160680633683
 20
-115.8221905378564
 30
0.0
 10
314.7513622161465
 20
-114.6690943807449
 30
0.0
 10
316.6821443443344
 20
-113.4247147360474
 30
0.0
 10
318.6050758385176
 20
-112.0913326742456
 30
0.0
 10
320.5168490720798
 20
-110.6713681543487
 30
0.0
 10
322.4141846841268
 20
-109.1673785373928
 30
0.0
 10
324.2938339618181
 20
-107.5820547136989
 30
0.0
 10
326.1525817846307
 20
-105.9182173291972
 30
0.0
 10
327.9872500759601
 20
-104.1788129538557
 30
0.0
 10
329.7947016850428
 20
-102.366910082627
 30
0.0
 10
331.5718446141856
 20
-100.485694897582
 30
0.0
 10
333.3156365073253
 20
-98.53846674918779
 30
0.0
 10
335.0230893218931
 20
-96.52863333631065
 30
0.0
 10
336.6912741141522
 20
-94.45970557997973
 30
0.0
 10
338.317325876966
 20
-92.335292196672
 30
0.0
 10
339.8984483773953
 20
-90.15909398411884
 30
0.0
 10
341.4319189491359
 20
-87.93489783737063
 30
0.0
 10
342.9150932013831
 20
-85.66657051593619
 30
0.0
 10
344.3454096113234
 20
-83.3580521846137
 30
0.0
 10
345.7203939718014
 20
-81.01334975237712
 30
0.0
 10
347.0376620096828
 20
-78.63653302928925
 30
0.0
 10
348.2949248562791
 20
-76.23172608196914
 30
0.0
 10
349.4899937255314
 20
-73.80309890357262
 30
0.0
 10
350.6207849116019
 20
-71.35485698342835
 30
0.0
 10
351.6853220209086
 20
-68.89123576430389
 30
0.0
 10
352.6817385066858
 20
-66.41649449218333
 30
0.0
 10
353.6082805524396
 20
-63.93490887639258
 30
0.0
 10
354.4633096989986
 20
-61.45076376696275
 30
0.0
 10
355.2453051233209
 20
-58.96834593912571
 30
0.0
 10
355.9528658860211
 20
-56.49193684561724
 30
0.0
 10
356.584711959981
 20
-54.02580607494887
 30
0.0
 10
357.1396884974326
 20
-51.57420300451331
 30
0.0
 10
357.6167567597226
 20
-49.14135629555773
 30
0.0
 10
358.0150337038631
 20
-46.73144552052126
 30
0.0
 10
358.3336489877656
 20
-44.34867855803574
 30
0.0
 10
358.5722829057435
 20
-41.99697623526384
 30
0.0
 10
358.7291621046592
 20
-39.68112558502493
 30
0.0
 10
358.7937030531836
 20
-37.82850821012084
 30
0.0
 10
358.7989434918861
 20
-36.75310299281485
 30
0.0
 10
358.8005427869041
 20
-36.42490714816083
 30
0.0
  0
SPLINE
  5
FB
330
1F
100
AcDbEntity
  8
0
  6
Continuous
 62
     7
370
    25
100
AcDbSpline
210
0.0
220
0.0
230
1.0
 70
     8
 71
     3
 72
    25
 73
    21
 74
     0
 42
0.00000001
 43
0.00000001
 40
0.0
 40
0.0
 40
0.0
 40
0.0
 40
0.0318005887046094
 40
0.0921553781352195
 40
0.1525196382640421
 40
0.2128835373445466
 40
0.2732412671036125
 40
0.333586002199418
 40
0.3939093537872372
 40
0.4542013267903794
 40
0.5144504173365003
 40
0.5746439129376119
 40
0.634768456594918
 40
0.6948109173431926
 40
0.7547595677185726
 40
0.8146055020876258
 40
0.8743441471596896
 40
0.9339766375833675
 40
0.9935107840053524
 40
1.0
 40
1.0
 40
1.0
 40
1.0
 10
358.8005427869041
 20
-36.42490714816083
 30
0.0
 10
358.7982666986507
 20
-36.03346319079461
 30
0.0
 10
358.7916707901408
 20
-34.8990921813484
 30
0.0
 10
358.7183920102129
 20
-33.05743000199685
 30
0.0
 10
358.5539609336212
 20
-30.9196674806842
 30
0.0
 10
358.3069874892286
 20
-28.83714289718702
 30
0.0
 10
357.9791684406248
 20
-26.8129057854775
 30
0.0
 10
357.5705712760691
 20
-24.85083121907054
 30
0.0
 10
357.0819035388661
 20
-22.95446152358912
 30
0.0
 10
356.5139190567583
 20
-21.12732988865605
 30
0.0
 10
355.8675921521017
 20
-19.37285962181778
 30
0.0
 10
355.1440793979746
 20
-17.69437878930465
 30
0.0
 10
354.3447565430214
 20
-16.09506459286545
 30
0.0
 10
353.4711488636991
 20
-14.5780227136631
 30
0.0
 10
352.5251789966579
 20
-13.14587049485943
 30
0.0
 10
351.5082061823868
 20
-11.80214898358816
 30
0.0
 10
350.4245131832124
 20
-10.54593387515151
 30
0.0
 10
349.2681905480806
 20
-9.391788262982217
 30
0.0
 10
348.4265291953076
 20
-8.620508509705374
 30
0.0
 10
347.9530667599789
 20
-8.262481919179582
 30
0.0
 10
347.906531716992
 20
-8.227292680208567
 30
0.0
  0
SPLINE
  5
FC
330
1F
100
AcDbEntity
  8
0
  6
Continuous
 62
     7
370
    25
100
AcDbSpline
210
0.0
220
0.0
230
1.0
 70
     8
 71
     3
 72
    14
 73
    10
 74
     0
 42
0.00000001
 43
0.00000001
 40
0.0
 40
0.0
 40
0.0
 40
0.0
 40
0.129401558397722
 40
0.2836815108354005
 40
0.4302126957404458
 40
0.5859639490996831
 40
0.7366834956065601
 40
0.8850963796302288
 40
0.9999999999999999
 40
0.9999999999999999
 40
0.9999999999999999
 40
0.9999999999999999
 10
338.0927593604565
 20
-31.78280698339689
 30
0.0
 10
338.1926787386861
 20
-31.84431202824122
 30
0.0
 10
338.4117277248723
 20
-31.97914691169609
 30
0.0
 10
338.6948035186195
 20
-32.28712416756248
 30
0.0
 10
338.9626473335647
 20
-32.69480834621528
 30
0.0
 10
339.1805035410267
 20
-33.19540373316929
 30
0.0
 10
339.3391357758475
 20
-33.7895518307324
 30
0.0
 10
339.4269546184533
 20
-34.3998385797828
 30
0.0
 10
339.4367826453213
 20
-34.82922951225164
 30
0.0
 10
339.4410713087715
 20
-35.01660315526836
 30
0.0
  0
SPLINE
  5
FD
330
1F
100
AcDbEntity
  8
0
  6
Continuous
 62
     7
370
    25
100
AcDbSpline
210
0.0
220
0.0
230
1.0
 70
     8
 71
     3
 72
    29
 73
    25
 74
     0
 42
0.00000001
 43
0.00000001
 40
0.0
 40
0.0
 40
0.0
 40
0.0
 40
0.0250258201720782
 40
0.0730470689930204
 40
0.121227208814189
 40
0.1695711359747588
 40
0.2180680122298476
 40
0.2666877465963982
 40
0.3153916551592216
 40
0.3641375529963679
 40
0.4128806139154703
 40
0.4615634249139876
 40
0.5101417984430617
 40
0.5585726698993081
 40
0.6068171675691606
 40
0.6548474820844531
 40
0.7026605851946692
 40
0.7503037166876994
 40
0.7979021719933647
 40
0.845661923338871
 40
0.8940638968480283
 40
0.9439351487654403
 40
0.9964381552322126
 40
1.0
 40
1.0
 40
1.0
 40
1.0
 10
339.4410713087715
 20
-35.01660315526835
 30
0.0
 10
339.4390976469302
 20
-35.14583345505194
 30
0.0
 10
339.433336788277
 20
-35.5230396588595
 30
0.0
 10
339.3681308761194
 20
-36.18745257180662
 30
0.0
 10
339.2198992754122
 20
-37.01288999440411
 30
0.0
 10
338.9968816425105
 20
-37.86533390364041
 30
0.0
 10
338.7023494716597
 20
-38.7308882023956
 30
0.0
 10
338.3394200232598
 20
-39.59672153494908
 30
0.0
 10
337.9129914453144
 20
-40.44962297567569
 30
0.0
 10
337.4291000369299
 20
-41.2767075706557
 30
0.0
 10
336.8950004517288
 20
-42.0654645719948
 30
0.0
 10
336.3189891390184
 20
-42.80409249859638
 30
0.0
 10
335.710293645571
 20
-43.48171904229156
 30
0.0
 10
335.0788957214509
 20
-44.08867055564964
 30
0.0
 10
334.435450015212
 20
-44.61664796501746
 30
0.0
 10
333.7911103630341
 20
-45.05900303377229
 30
0.0
 10
333.157244295714
 20
-45.41108120811718
 30
0.0
 10
332.545108164785
 20
-45.67041811777784
 30
0.0
 10
331.9652654947566
 20
-45.83725696478644
 30
0.0
 10
331.4269074508691
 20
-45.91346388441043
 30
0.0
 10
330.9334264607509
 20
-45.90658472774052
 30
0.0
 10
330.4900207626112
 20
-45.80828140677541
 30
0.0
 10
330.2056637937702
 20
-45.7110107114895
 30
0.0
 10
330.0784759240277
 20
-45.61691676277632
 30
0.0
 10
330.0703955771011
 20
-45.61093889907875
 30
0.0
  0
SPLINE
  5
FE
330
1F
100
AcDbEntity
  8
0
  6
Continuous
 62
     7
370
    25
100
AcDbSpline
210
0.0
220
0.0
230
1.0
 70
     8
 71
     3
 72
    14
 73
    10
 74
     0
 42
0.00000001
 43
0.00000001
 40
0.0
 40
0.0
 40
0.0
 40
0.0
 40
0.1294015583977275
 40
0.283681510835405
 40
0.430212695740452
 40
0.5859639490996826
 40
0.7366834956065649
 40
0.8850963796302332
 40
1.0
 40
1.0
 40
1.0
 40
1.0
 10
306.6618629367145
 20
-86.22271635697486
 30
0.0
 10
306.7617823149442
 20
-86.2842214018192
 30
0.0
 10
306.9808313011304
 20
-86.41905628527408
 30
0.0
 10
307.2639070948775
 20
-86.72703354114044
 30
0.0
 10
307.5317509098227
 20
-87.1347177197933
 30
0.0
 10
307.7496071172848
 20
-87.63531310674729
 30
0.0
 10
307.9082393521056
 20
-88.2294612043104
 30
0.0
 10
307.9960581947113
 20
-88.83974795336079
 30
0.0
 10
308.0058862215793
 20
-89.26913888582963
 30
0.0
 10
308.0101748850295
 20
-89.45651252884633
 30
0.0
  0
SPLINE
  5
FF
330
1F
100
AcDbEntity
  8
0
  6
Continuous
 62
     7
370
    25
100
AcDbSpline
210
0.0
220
0.0
230
1.0
 70
     8
 71
     3
 72
    29
 73
    25
 74
     0
 42
0.00000001
 43
0.00000001
 40
0.0
 40
0.0
 40
0.0
 40
0.0
 40
0.0250258201720783
 40
0.0730470689930233
 40
0.1212272088141941
 40
0.169571135974761
 40
0.2180680122298493
 40
0.2666877465964003
 40
0.3153916551592242
 40
0.3641375529963676
 40
0.4128806139154665
 40
0.461563424913983
 40
0.510141798443061
 40
0.5585726698993071
 40
0.6068171675691559
 40
0.6548474820844516
 40
0.7026605851946652
 40
0.7503037166876989
 40
0.7979021719933654
 40
0.8456619233388705
 40
0.8940638968480266
 40
0.943935148765439
 40
0.9964381552322142
 40
1.0
 40
1.0
 40
1.0
 40
1.0
 10
308.0101748850295
 20
-89.45651252884635
 30
0.0
 10
308.0082012231882
 20
-89.58574282862992
 30
0.0
 10
308.0024403645351
 20
-89.96294903243749
 30
0.0
 10
307.9372344523775
 20
-90.62736194538465
 30
0.0
 10
307.7890028516701
 20
-91.45279936798215
 30
0.0
 10
307.5659852187686
 20
-92.30524327721845
 30
0.0
 10
307.2714530479178
 20
-93.17079757597362
 30
0.0
 10
306.9085235995178
 20
-94.03663090852713
 30
0.0
 10
306.4820950215724
 20
-94.88953234925371
 30
0.0
 10
305.998203613188
 20
-95.71661694423369
 30
0.0
 10
305.4641040279869
 20
-96.50537394557274
 30
0.0
 10
304.8880927152765
 20
-97.24400187217432
 30
0.0
 10
304.2793972218291
 20
-97.92162841586952
 30
0.0
 10
303.6479992977089
 20
-98.52857992922762
 30
0.0
 10
303.00455359147
 20
-99.05655733859545
 30
0.0
 10
302.3602139392922
 20
-99.49891240735025
 30
0.0
 10
301.7263478719721
 20
-99.85099058169517
 30
0.0
 10
301.1142117410431
 20
-100.1103274913558
 30
0.0
 10
300.5343690710147
 20
-100.2771663383644
 30
0.0
 10
299.9960110271272
 20
-100.3533732579884
 30
0.0
 10
299.502530037009
 20
-100.3464941013185
 30
0.0
 10
299.0591243388692
 20
-100.2481907803534
 30
0.0
 10
298.7747673700281
 20
-100.1509200850675
 30
0.0
 10
298.6475795002858
 20
-100.0568261363543
 30
0.0
 10
298.6394991533591
 20
-100.0508482726567
 30
0.0
  0
SPLINE
  5
100
330
1F
100
AcDbEntity
  8
0
  6
Continuous
 62
     7
370
    25
100
AcDbSpline
210
0.0
220
0.0
230
1.0
 70
     8
 71
     3
 72
    20
 73
    16
 74
     0
 42
0.00000001
 43
0.00000001
 40
0.0
 40
0.0
 40
0.0
 40
0.0
 40
0.0544002661448053
 40
0.1419605471982839
 40
0.2292568157658865
 40
0.3159724841620799
 40
0.4019652408300535
 40
0.4872523916570889
 40
0.5719463009705208
 40
0.6561922183219896
 40
0.7401294234740747
 40
0.8238738339577255
 40
0.9075138774703865
 40
0.9866401416858125
 40
1.0
 40
1.0
 40
1.0
 40
1.0
 10
315.3235219654349
 20
-34.72523007271578
 30
0.0
 10
315.4942183463752
 20
-34.82048297395667
 30
0.0
 10
315.9396601311367
 20
-35.06905076490069
 30
0.0
 10
316.5947190122186
 20
-35.58086311859846
 30
0.0
 10
317.2921635135106
 20
-36.24659134419565
 30
0.0
 10
317.9223570074262
 20
-37.00803520914975
 30
0.0
 10
318.4854005553611
 20
-37.85538956262209
 30
0.0
 10
318.9785031589294
 20
-38.78558216585501
 30
0.0
 10
319.4003953811626
 20
-39.79408770028141
 30
0.0
 10
319.7497308454867
 20
-40.87697858363354
 30
0.0
 10
320.0252118099657
 20
-42.03012345943883
 30
0.0
 10
320.2257468946604
 20
-43.24901071509235
 30
0.0
 10
320.3474411209046
 20
-44.50629460879932
 30
0.0
 10
320.382867834922
 20
-45.44251952640373
 30
0.0
 10
320.3843320466468
 20
-45.94510298816208
 30
0.0
 10
320.3845435557969
 20
-46.0177024620777
 30
0.0
  0
SPLINE
  5
101
330
1F
100
AcDbEntity
  8
0
  6
Continuous
 62
     7
370
    25
100
AcDbSpline
210
0.0
220
0.0
230
1.0
 70
     8
 71
     3
 72
    44
 73
    40
 74
     0
 42
0.00000001
 43
0.00000001
 40
0.0
 40
0.0
 40
0.0
 40
0.0
 40
0.0146407295353532
 40
0.0425668726126066
 40
0.0705102910553531
 40
0.0984693093951318
 40
0.1264457298395763
 40
0.1544396958309262
 40
0.1824502491831863
 40
0.2104757206546296
 40
0.2385139955449776
 40
0.266562689308333
 40
0.2946192598073674
 40
0.3226810759395836
 40
0.3507454571068117
 40
0.3788096299706322
 40
0.4068700265847091
 40
0.4349239125630063
 40
0.4629685588457149
 40
0.4910012659690652
 40
0.5190194095449696
 40
0.5470205182721412
 40
0.5750024002834827
 40
0.602963339329236
 40
0.6309023895698402
 40
0.6588198062165997
 40
0.6867176574909494
 40
0.7146006678223011
 40
0.7424773352437819
 40
0.7703564687247995
 40
0.7982558905726228
 40
0.8262015246424635
 40
0.8542283328685941
 40
0.8823801275880878
 40
0.9107063741315592
 40
0.9392537323214348
 40
0.9680504964173421
 40
0.9970855424023366
 40
1.0
 40
1.0
 40
1.0
 40
1.0
 10
320.3845435557969
 20
-46.0177024620777
 30
0.0
 10
320.3823945027853
 20
-46.25764790261711
 30
0.0
 10
320.3761462850607
 20
-46.95527208703724
 30
0.0
 10
320.3064135097707
 20
-48.14652942632882
 30
0.0
 10
320.1494627598788
 20
-49.59950528989631
 30
0.0
 10
319.9137615845219
 20
-51.0866238504222
 30
0.0
 10
319.6013780886548
 20
-52.60018666753239
 30
0.0
 10
319.2130722710058
 20
-54.13354945980056
 30
0.0
 10
318.7504500402964
 20
-55.67964891072668
 30
0.0
 10
318.2153784407704
 20
-57.23143009167157
 30
0.0
 10
317.6101279650285
 20
-58.78178661952995
 30
0.0
 10
316.9373170667083
 20
-60.32362723923725
 30
0.0
 10
316.1999079528633
 20
-61.84990509163445
 30
0.0
 10
315.4011874738997
 20
-63.3536543504142
 30
0.0
 10
314.5447518591169
 20
-64.82802176265106
 30
0.0
 10
313.6344979276996
 20
-66.2662857975708
 30
0.0
 10
312.6745986004019
 20
-67.66190432363089
 30
0.0
 10
311.6694832060998
 20
-69.0085474862857
 30
0.0
 10
310.6238077489861
 20
-70.30013994735238
 30
0.0
 10
309.5424442958447
 20
-71.53087717670232
 30
0.0
 10
308.4304601665722
 20
-72.69525632579584
 30
0.0
 10
307.2930955581117
 20
-73.78810753288164
 30
0.0
 10
306.1357389560277
 20
-74.80462578652102
 30
0.0
 10
304.9638993932908
 20
-75.74040336458681
 30
0.0
 10
303.7831742511943
 20
-76.59146260154208
 30
0.0
 10
302.5992108495677
 20
-77.35428827503418
 30
0.0
 10
301.4176596622272
 20
-78.02585799483094
 30
0.0
 10
300.2441165462087
 20
-78.60366790752377
 30
0.0
 10
299.0841194852049
 20
-79.08571996195883
 30
0.0
 10
297.943025701415
 20
-79.47056356775109
 30
0.0
 10
296.8259120678615
 20
-79.7572758036912
 30
0.0
 10
295.7373887832462
 20
-79.94543770057818
 30
0.0
 10
294.681591808333
 20
-80.03489893471146
 30
0.0
 10
293.6619033055221
 20
-80.02597535309681
 30
0.0
 10
292.6818108651905
 20
-79.91780264154363
 30
0.0
 10
291.7419924322905
 20
-79.7134897892266
 30
0.0
 10
290.8524553048368
 20
-79.3998443470462
 30
0.0
 10
290.2495849746508
 20
-79.13755878571752
 30
0.0
 10
289.9603277491768
 20
-78.95151567922674
 30
0.0
 10
289.933941488862
 20
-78.9345446879936
 30
0.0
  0
SPLINE
  5
102
330
1F
100
AcDbEntity
  8
0
  6
Continuous
 62
     7
370
    25
100
AcDbSpline
210
0.0
220
0.0
230
1.0
 70
     8
 71
     3
 72
    43
 73
    39
 74
     0
 42
0.00000001
 43
0.00000001
 40
0.0
 40
0.0
 40
0.0
 40
0.0
 40
0.0183654792823349
 40
0.0472472277837302
 40
0.0760365346267889
 40
0.1047702299939934
 40
0.1334758018701328
 40
0.1621725457026304
 40
0.190870064869658
 40
0.2195771914074305
 40
0.248299285276856
 40
0.2770388922303104
 40
0.3057966259329338
 40
0.3345718080704096
 40
0.3633629190627229
 40
0.3921679071153827
 40
0.4209843944655727
 40
0.4498098107500651
 40
0.4786414758180191
 40
0.5074766483852846
 40
0.5363125525968168
 40
0.5651456883288845
 40
0.5939730201871944
 40
0.6227917404195075
 40
0.6515990619644344
 40
0.6803922572019881
 40
0.7091687260536067
 40
0.7379261080748575
 40
0.7666624586091213
 40
0.7953765160464978
 40
0.824068095634687
 40
0.8527386540826337
 40
0.8813920755902926
 40
0.910035727697266
 40
0.9386787083653356
 40
0.9673358870095948
 40
0.9960311915075202
 40
1.0
 40
1.0
 40
1.0
 40
1.0
 10
295.9370167850721
 20
-79.89546212452423
 30
0.0
 10
295.8504779579438
 20
-79.68074993881713
 30
0.0
 10
295.6278472487416
 20
-79.12837908096519
 30
0.0
 10
295.3491613361267
 20
-78.15012470791135
 30
0.0
 10
295.0949140451787
 20
-76.97839151559765
 30
0.0
 10
294.9189647093079
 20
-75.73900218644722
 30
0.0
 10
294.8187579720147
 20
-74.44115667880205
 30
0.0
 10
294.7961053465347
 20
-73.08919320459388
 30
0.0
 10
294.8512735440968
 20
-71.68927240861625
 30
0.0
 10
294.9844974022196
 20
-70.24750627269995
 30
0.0
 10
295.1955497655679
 20
-68.77032990921539
 30
0.0
 10
295.4838381106644
 20
-67.2643849976309
 30
0.0
 10
295.8483677485373
 20
-65.7365066949879
 30
0.0
 10
296.2877518787594
 20
-64.19366218294793
 30
0.0
 10
296.8002171023105
 20
-62.64290553292916
 30
0.0
 10
297.3836152773171
 20
-61.0913334881581
 30
0.0
 10
298.0354369142265
 20
-59.54604553809849
 30
0.0
 10
298.752826197079
 20
-58.01410651622724
 30
0.0
 10
299.5325968790444
 20
-56.50251138862835
 30
0.0
 10
300.3712488336766
 20
-55.01815163987433
 30
0.0
 10
301.2649778451163
 20
-53.56779463474744
 30
0.0
 10
302.2096960209198
 20
-52.15804248413244
 30
0.0
 10
303.2010522358026
 20
-50.79529599167126
 30
0.0
 10
304.2344602283707
 20
-49.48571319196564
 30
0.0
 10
305.3051138452141
 20
-48.23518727749484
 30
0.0
 10
306.4080049662342
 20
-47.04931955706716
 30
0.0
 10
307.5379453793187
 20
-45.93338816411585
 30
0.0
 10
308.6895903945581
 20
-44.89231690132605
 30
0.0
 10
309.8574661808065
 20
-43.93064102371085
 30
0.0
 10
311.0359977424078
 20
-43.05248178997728
 30
0.0
 10
312.2195550366264
 20
-42.26148675384763
 30
0.0
 10
313.4024600212089
 20
-41.56089946595222
 30
0.0
 10
314.5791780272197
 20
-40.95315546591546
 30
0.0
 10
315.7438299328682
 20
-40.4412852580888
 30
0.0
 10
316.8921790005878
 20
-40.02365521873275
 30
0.0
 10
318.014610489495
 20
-39.71351411373219
 30
0.0
 10
318.8038030419652
 20
-39.537242030403
 30
0.0
 10
319.2062530948707
 20
-39.49360377239519
 30
0.0
 10
319.2551522395755
 20
-39.48830156538197
 30
0.0
  0
SPLINE
  5
103
330
1F
100
AcDbEntity
  8
0
  6
Continuous
 62
     7
370
    25
100
AcDbSpline
210
0.0
220
0.0
230
1.0
 70
     8
 71
     3
 72
    14
 73
    10
 74
     0
 42
0.00000001
 43
0.00000001
 40
0.0
 40
0.0
 40
0.0
 40
0.0
 40
0.1294015583977309
 40
0.2836815108354065
 40
0.4302126957404474
 40
0.5859639490996796
 40
0.7366834956065601
 40
0.8850963796302265
 40
0.9999999999999999
 40
0.9999999999999999
 40
0.9999999999999999
 40
0.9999999999999999
 10
306.6618629367174
 20
-13.63223818033338
 30
0.0
 10
306.761782314947
 20
-13.69374322517771
 30
0.0
 10
306.9808313011333
 20
-13.82857810863258
 30
0.0
 10
307.2639070948804
 20
-14.13655536449897
 30
0.0
 10
307.5317509098256
 20
-14.54423954315179
 30
0.0
 10
307.7496071172877
 20
-15.04483493010578
 30
0.0
 10
307.9082393521084
 20
-15.6389830276689
 30
0.0
 10
307.9960581947142
 20
-16.24926977671926
 30
0.0
 10
308.0058862215822
 20
-16.67866070918814
 30
0.0
 10
308.0101748850324
 20
-16.86603435220485
 30
0.0
  0
SPLINE
  5
104
330
1F
100
AcDbEntity
  8
0
  6
Continuous
 62
     7
370
    25
100
AcDbSpline
210
0.0
220
0.0
230
1.0
 70
     8
 71
     3
 72
    29
 73
    25
 74
     0
 42
0.00000001
 43
0.00000001
 40
0.0
 40
0.0
 40
0.0
 40
0.0
 40
0.0250258201720783
 40
0.0730470689930234
 40
0.1212272088141942
 40
0.1695711359747611
 40
0.2180680122298494
 40
0.2666877465964004
 40
0.3153916551592244
 40
0.3641375529963672
 40
0.4128806139154687
 40
0.4615634249139846
 40
0.5101417984430613
 40
0.5585726698993093
 40
0.60681716756916
 40
0.6548474820844545
 40
0.7026605851946701
 40
0.7503037166877026
 40
0.7979021719933714
 40
0.8456619233388785
 40
0.8940638968480331
 40
0.9439351487654444
 40
0.9964381552322141
 40
1.0
 40
1.0
 40
1.0
 40
1.0
 10
308.0101748850324
 20
-16.86603435220485
 30
0.0
 10
308.0082012231911
 20
-16.99526465198842
 30
0.0
 10
308.002440364538
 20
-17.372470855796
 30
0.0
 10
307.9372344523803
 20
-18.03688376874317
 30
0.0
 10
307.789002851673
 20
-18.86232119134064
 30
0.0
 10
307.5659852187715
 20
-19.71476510057697
 30
0.0
 10
307.2714530479206
 20
-20.58031939933216
 30
0.0
 10
306.9085235995207
 20
-21.44615273188561
 30
0.0
 10
306.4820950215753
 20
-22.29905417261222
 30
0.0
 10
305.9982036131909
 20
-23.12613876759221
 30
0.0
 10
305.4641040279897
 20
-23.91489576893126
 30
0.0
 10
304.8880927152794
 20
-24.65352369553286
 30
0.0
 10
304.2793972218319
 20
-25.33115023922805
 30
0.0
 10
303.6479992977117
 20
-25.93810175258615
 30
0.0
 10
303.0045535914728
 20
-26.466079161954
 30
0.0
 10
302.360213939295
 20
-26.90843423070879
 30
0.0
 10
301.7263478719749
 20
-27.26051240505369
 30
0.0
 10
301.1142117410458
 20
-27.51984931471437
 30
0.0
 10
300.5343690710175
 20
-27.68668816172294
 30
0.0
 10
299.99601102713
 20
-27.76289508134694
 30
0.0
 10
299.5025300370117
 20
-27.75601592467702
 30
0.0
 10
299.059124338872
 20
-27.65771260371189
 30
0.0
 10
298.774767370031
 20
-27.56044190842596
 30
0.0
 10
298.6475795002886
 20
-27.46634795971281
 30
0.0
 10
298.6394991533619
 20
-27.46037009601524
 30
0.0
  0
SPLINE
  5
105
330
1F
100
AcDbEntity
  8
0
  6
Continuous
 62
     7
370
    25
100
AcDbSpline
210
0.0
220
0.0
230
1.0
 70
     8
 71
     3
 72
    14
 73
    10
 74
     0
 42
0.00000001
 43
0.00000001
 40
0.0
 40
0.0
 40
0.0
 40
0.0
 40
0.1294015583977088
 40
0.2836815108353876
 40
0.4302126957404355
 40
0.5859639490996621
 40
0.7366834956065473
 40
0.885096379630215
 40
0.9999999999999999
 40
0.9999999999999999
 40
0.9999999999999999
 40
0.9999999999999999
 10
275.2309665129754
 20
-68.07214755391138
 30
0.0
 10
275.3308858912051
 20
-68.13365259875569
 30
0.0
 10
275.5499348773912
 20
-68.26848748221055
 30
0.0
 10
275.8330106711384
 20
-68.57646473807694
 30
0.0
 10
276.1008544860836
 20
-68.98414891672972
 30
0.0
 10
276.3187106935457
 20
-69.48474430368373
 30
0.0
 10
276.4773429283665
 20
-70.07889240124683
 30
0.0
 10
276.5651617709722
 20
-70.68917915029724
 30
0.0
 10
276.5749897978402
 20
-71.11857008276613
 30
0.0
 10
276.5792784612904
 20
-71.30594372578285
 30
0.0
  0
SPLINE
  5
106
330
1F
100
AcDbEntity
  8
0
  6
Continuous
 62
     7
370
    25
100
AcDbSpline
210
0.0
220
0.0
230
1.0
 70
     8
 71
     3
 72
    29
 73
    25
 74
     0
 42
0.00000001
 43
0.00000001
 40
0.0
 40
0.0
 40
0.0
 40
0.0
 40
0.0250258201720782
 40
0.0730470689930204
 40
0.1212272088141889
 40
0.1695711359747588
 40
0.2180680122298476
 40
0.2666877465963982
 40
0.3153916551592215
 40
0.3641375529963677
 40
0.4128806139154702
 40
0.4615634249139874
 40
0.5101417984430616
 40
0.558572669899308
 40
0.6068171675691605
 40
0.6548474820844529
 40
0.7026605851946691
 40
0.7503037166876991
 40
0.7979021719933644
 40
0.8456619233388708
 40
0.8940638968480281
 40
0.94393514876544
 40
0.9964381552322122
 40
0.9999999999999999
 40
0.9999999999999999
 40
0.9999999999999999
 40
0.9999999999999999
 10
276.5792784612904
 20
-71.30594372578285
 30
0.0
 10
276.5773047994491
 20
-71.43517402556643
 30
0.0
 10
276.5715439407959
 20
-71.81238022937399
 30
0.0
 10
276.5063380286383
 20
-72.47679314232111
 30
0.0
 10
276.3581064279311
 20
-73.30223056491857
 30
0.0
 10
276.1350887950294
 20
-74.15467447415492
 30
0.0
 10
275.8405566241786
 20
-75.0202287729101
 30
0.0
 10
275.4776271757787
 20
-75.88606210546357
 30
0.0
 10
275.0511985978333
 20
-76.73896354619018
 30
0.0
 10
274.5673071894489
 20
-77.56604814117019
 30
0.0
 10
274.0332076042478
 20
-78.35480514250928
 30
0.0
 10
273.4571962915373
 20
-79.09343306911087
 30
0.0
 10
272.8485007980899
 20
-79.77105961280604
 30
0.0
 10
272.2171028739698
 20
-80.37801112616414
 30
0.0
 10
271.5736571677309
 20
-80.90598853553196
 30
0.0
 10
270.9293175155531
 20
-81.34834360428677
 30
0.0
 10
270.2954514482329
 20
-81.70042177863168
 30
0.0
 10
269.6833153173039
 20
-81.95975868829234
 30
0.0
 10
269.1034726472755
 20
-82.12659753530092
 30
0.0
 10
268.5651146033881
 20
-82.20280445492493
 30
0.0
 10
268.0716336132698
 20
-82.195925298255
 30
0.0
 10
267.6282279151301
 20
-82.0976219772899
 30
0.0
 10
267.3438709462891
 20
-82.00035128200396
 30
0.0
 10
267.2166830765466
 20
-81.90625733329081
 30
0.0
 10
267.2086027296199
 20
-81.90027946959324
 30
0.0
  0
LWPOLYLINE
  5
107
330
1F
100
AcDbEntity
  8
0
  6
Continuous
 62
     7
370
    25
100
AcDbPolyline
 90
      142
 70
   128
 43
0.0
 10
347.1939410691
 20
-30.3018463095
 10
347.1490164271
 20
-27.9998241288
 10
347.014331695
 20
-25.7542412876
 10
346.7901542767
 20
-23.5695561827
 10
346.4769292558
 20
-21.4501063043
 10
346.0752785116
 20
-19.4000996239
 10
345.5859994845
 20
-17.4236062399
 10
345.0100635926
 20
-15.524550297
 10
344.3486143033
 20
-13.7067021951
 10
343.6029648631
 20
-11.9736711032
 10
342.7745956898
 20
-10.3288977942
 10
341.8651514338
 20
-8.7756478133
 10
340.8764377124
 20
-7.3170049944
 10
339.8104175253
 20
-5.955865338
 10
338.6692073568
 20
-4.6949312607
 10
337.4550729741
 20
-3.5367062305
 10
336.1704249286
 20
-2.483489796
 10
334.8178137701
 20
-1.5373730209
 10
333.3999249828
 20
-0.7002343325
 10
331.9195736538
 20
0.0262642079
 10
330.3796988834
 20
0.6406802045
 10
328.7833579506
 20
1.1417937915
 10
327.1337202426
 20
1.528610054
 10
325.4340609622
 20
1.8003610042
 10
323.6877546256
 20
1.9565071058
 10
321.8982683625
 20
1.9967383451
 10
320.0691550322
 20
1.9209748468
 10
318.2040461698
 20
1.7293670321
 10
316.3066447764
 20
1.4222953208
 10
314.3807179668
 20
1.0003693753
 10
312.4300894904
 20
0.4644268905
 10
310.4586321396
 20
-0.1844680695
 10
308.4702600603
 20
-0.9450271837
 10
306.4689209813
 20
-1.8157404324
 10
304.4585883761
 20
-2.7948790951
 10
302.443253574
 20
-3.8804991825
 10
300.4269178357
 20
-5.0704452966
 10
298.4135844091
 20
-6.3623549094
 10
296.4072505815
 20
-7.7536630539
 10
294.4118997429
 20
-9.2416074167
 10
292.4314934776
 20
-10.8232338219
 10
290.4699636991
 20
-12.4954020967
 10
288.5312048431
 20
-14.2547923058
 10
286.6190661359
 20
-16.0979113428
 10
284.7373439519
 20
-18.0210998655
 10
282.8897742764
 20
-20.0205395609
 10
281.0800252877
 20
-22.0922607268
 10
279.3116900752
 20
-24.2321501525
 10
277.5882795046
 20
-26.4359592856
 10
275.9132152481
 20
-28.6993126671
 10
274.2898229908
 20
-31.0177166184
 10
272.7213258277
 20
-33.3865681629
 10
271.2108378647
 20
-35.8011641653
 10
269.7613580359
 20
-38.2567106687
 10
268.3757641493
 20
-40.7483324128
 10
267.0568071733
 20
-43.2710825132
 10
265.8071057749
 20
-45.8199522832
 10
264.6291411205
 20
-48.3898811777
 10
263.52525195
 20
-50.9757668408
 10
262.497629933
 20
-53.572475236
 10
261.5483153181
 20
-56.174850839
 10
260.6791928814
 20
-58.7777268739
 10
259.8919881851
 20
-61.3759355714
 10
259.1882641514
 20
-63.9643184286
 10
258.569417959
 20
-66.5377364508
 10
258.0366782699
 20
-69.0910803549
 10
257.5911027894
 20
-71.6192807128
 10
257.2335761663
 20
-74.1173180168
 10
256.9648082367
 20
-76.580232645
 10
256.7853326144
 20
-79.0031347084
 10
256.6955056317
 20
-81.3812137592
 10
256.6955056317
 20
-83.7097483417
 10
256.7853326144
 20
-85.9841153658
 10
256.9648082367
 20
-88.1997992865
 10
257.2335761663
 20
-90.3524010684
 10
257.5911027894
 20
-92.4376469199
 10
258.0366782699
 20
-94.4513967784
 10
258.569417959
 20
-96.38965253
 10
259.1882641514
 20
-98.2485659472
 10
259.8919881851
 20
-100.0244463295
 10
260.6791928814
 20
-101.7137678309
 10
261.5483153181
 20
-103.3131764599
 10
262.497629933
 20
-104.8194967386
 10
263.52525195
 20
-106.2297380077
 10
264.6291411205
 20
-107.5411003635
 10
265.8071057749
 20
-108.7509802175
 10
267.0568071733
 20
-109.8569754654
 10
268.3757641493
 20
-110.8568902558
 10
269.7613580359
 20
-111.7487393505
 10
271.2108378647
 20
-112.5307520657
 10
272.7213258277
 20
-113.2013757875
 10
274.2898229908
 20
-113.7592790547
 10
275.9132152481
 20
-114.2033542018
 10
277.5882795046
 20
-114.5327195589
 10
279.3116900752
 20
-114.7467212014
 10
281.0800252877
 20
-114.844934249
 10
282.8897742764
 20
-114.8271637088
 10
284.7373439519
 20
-114.6934448623
 10
286.6190661359
 20
-114.4440431962
 10
288.5312048431
 20
-114.0794538743
 10
290.4699636991
 20
-113.6004007549
 10
292.4314934776
 20
-113.0078349537
 10
294.4118997429
 20
-112.3029329552
 10
296.4072505815
 20
-111.4870942771
 10
298.4135844091
 20
-110.5619386915
 10
300.4269178357
 20
-109.5293030093
 10
302.443253574
 20
-108.391237433
 10
304.4585883761
 20
-107.1500014865
 10
306.4689209813
 20
-105.8080595288
 10
308.4702600603
 20
-104.3680758615
 10
310.4586321396
 20
-102.8329094389
 10
312.4300894904
 20
-101.2056081917
 10
314.3807179668
 20
-99.4894029761
 10
316.3066447764
 20
-97.6877011585
 10
318.2040461698
 20
-95.8040798512
 10
320.0691550322
 20
-93.8422788099
 10
321.8982683625
 20
-91.806193009
 10
323.6877546256
 20
-89.6998649084
 10
325.4340609622
 20
-87.5274764276
 10
327.1337202426
 20
-85.2933406427
 10
328.7833579506
 20
-83.0018932237
 10
330.3796988834
 20
-80.6576836272
 10
331.9195736538
 20
-78.2653660644
 10
333.3999249828
 20
-75.8296902603
 10
334.8178137701
 20
-73.355492024
 10
336.1704249286
 20
-70.8476836468
 10
337.4550729741
 20
-68.3112441502
 10
338.6692073568
 20
-65.7512094001
 10
339.8104175253
 20
-63.1726621085
 10
340.8764377124
 20
-60.5807217423
 10
341.8651514338
 20
-57.9805343592
 10
342.7745956898
 20
-55.3772623906
 10
343.6029648631
 20
-52.776074392
 10
344.3486143033
 20
-50.1821347814
 10
345.0100635926
 20
-47.6005935858
 10
345.5859994845
 20
-45.0365762163
 10
346.0752785116
 20
-42.4951732919
 10
346.4769292558
 20
-39.9814305331
 10
346.7901542767
 20
-37.5003387433
 10
347.014331695
 20
-35.0568239007
 10
347.1490164271
 20
-32.6557373777
 10
347.1939410691
 20
-30.3018463095
  0
ARC
  5
108
330
1F
100
AcDbEntity
  8
0
  6
Continuous
 62
     7
370
    25
100
AcDbCircle
 10
281.0422418531
 20
-94.2584520452
 30
0.0
 40
21.78803279027515
100
AcDbArc
 50
231.4069024788
 51
248.7338586347
  0
ARC
  5
109
330
1F
100
AcDbEntity
  8
0
  6
Continuous
 62
     7
370
    25
100
AcDbCircle
 10
324.2529842283
 20
-19.4070290453
 30
0.0
 40
21.78255557108535
100
AcDbArc
 50
51.6456371903
 51
68.3617353173
  0
ARC
  5
10A
330
1F
100
AcDbEntity
  8
0
  6
Continuous
 62
     7
370
    25
100
AcDbCircle
 10
334.1135644645
 20
-25.1749597376
 30
0.0
 40
21.84836743619485
100
AcDbArc
 50
51.1284443286
 51
59.9838908558
  0
ARC
  5
10B
330
1F
100
AcDbEntity
  8
0
  6
Continuous
 62
     7
370
    25
100
AcDbCircle
 10
290.941494891
 20
-99.9666535992
 30
0.0
 40
21.79409208673231
100
AcDbArc
 50
240.0118418084
 51
248.3861174869
  0
LWPOLYLINE
  5
10C
330
1F
100
AcDbEntity
  8
0
  6
Continuous
 62
     7
370
    25
100
AcDbPolyline
 90
       54
 70
   128
 43
0.0
 10
308.3030681038
 20
-89.0483084729
 10
308.2584000724
 20
-89.9432686177
 10
308.1250230193
 20
-90.8772380951
 10
307.904809266
 20
-91.8371060211
 10
307.6008501309
 20
-92.809397954
 10
307.217412534
 20
-93.7804650463
 10
306.7598790986
 20
-94.7366756447
 10
306.2346725912
 20
-95.6646066485
 10
305.6491657599
 20
-96.5512319403
 10
305.0115778373
 20
-97.3841052446
 10
304.33085916
 20
-98.1515348458
 10
303.6165655262
 20
-98.8427477147
 10
302.8787240528
 20
-99.4480407376
 10
302.1276924166
 20
-99.9589169274
 10
301.3740134556
 20
-100.3682047022
 10
300.6282671703
 20
-100.6701585588
 10
299.9009222039
 20
-100.860539727
 10
299.2021888852
 20
-100.9366756725
 10
298.5418758985
 20
-100.8974976134
 10
297.9292525907
 20
-100.7435555239
 10
297.3729188501
 20
-100.4770104135
 10
296.8806843829
 20
-100.1016039912
 10
296.4594590822
 20
-99.6226061403
 10
296.1151560276
 20
-99.0467409407
 10
295.8526084795
 20
-98.3820922774
 10
295.6755020299
 20
-97.6379903607
 10
295.5863228651
 20
-96.8248807506
 10
295.5863228651
 20
-95.9541777234
 10
295.6755020299
 20
-95.0381040412
 10
295.8526084795
 20
-94.0895193704
 10
296.1151560276
 20
-93.1217397603
 10
296.4594590822
 20
-92.1483507155
 10
296.8806843829
 20
-91.1830164843
 10
297.3729188501
 20
-90.2392882433
 10
297.9292525907
 20
-89.3304138683
 10
298.5418758985
 20
-88.4691519633
 10
299.2021888852
 20
-87.6675927576
 10
299.9009222039
 20
-86.9369883853
 10
300.6282671703
 20
-86.2875949303
 10
301.3740134556
 20
-85.7285284532
 10
302.1276924166
 20
-85.2676370219
 10
302.8787240528
 20
-84.9113905418
 10
303.6165655262
 20
-84.6647899326
 10
304.33085916
 20
-84.5312969263
 10
305.0115778373
 20
-84.512785472
 10
305.6491657599
 20
-84.60951543
 10
306.2346725912
 20
-84.8201289238
 10
306.7598790986
 20
-85.1416694015
 10
307.217412534
 20
-85.5696231396
 10
307.6008501309
 20
-86.0979826058
 10
307.904809266
 20
-86.7193307914
 10
308.1250230193
 20
-87.4249453297
 10
308.2584000724
 20
-88.2049209395
 10
308.3030681038
 20
-89.0483084729
  0
LWPOLYLINE
  5
10D
330
1F
100
AcDbEntity
  8
0
  6
Continuous
 62
     7
370
    25
100
AcDbPolyline
 90
       54
 70
   128
 43
0.0
 10
308.3030681038
 20
-16.4578302963
 10
308.2584000724
 20
-17.352790441
 10
308.1250230193
 20
-18.2867599185
 10
307.904809266
 20
-19.2466278445
 10
307.6008501309
 20
-20.2189197774
 10
307.217412534
 20
-21.1899868697
 10
306.7598790986
 20
-22.1461974681
 10
306.2346725912
 20
-23.0741284718
 10
305.6491657599
 20
-23.9607537636
 10
305.0115778373
 20
-24.7936270679
 10
304.33085916
 20
-25.5610566692
 10
303.6165655262
 20
-26.252269538
 10
302.8787240528
 20
-26.857562561
 10
302.1276924166
 20
-27.3684387508
 10
301.3740134556
 20
-27.7777265256
 10
300.6282671703
 20
-28.0796803822
 10
299.9009222039
 20
-28.2700615504
 10
299.2021888852
 20
-28.3461974958
 10
298.5418758985
 20
-28.3070194368
 10
297.9292525907
 20
-28.1530773473
 10
297.3729188501
 20
-27.8865322369
 10
296.880684383
 20
-27.5111258146
 10
296.4594590822
 20
-27.0321279637
 10
296.1151560276
 20
-26.456262764
 10
295.8526084795
 20
-25.7916141007
 10
295.6755020299
 20
-25.0475121841
 10
295.5863228651
 20
-24.2344025739
 10
295.5863228651
 20
-23.3636995468
 10
295.6755020299
 20
-22.4476258646
 10
295.8526084795
 20
-21.4990411937
 10
296.1151560276
 20
-20.5312615837
 10
296.4594590822
 20
-19.5578725388
 10
296.880684383
 20
-18.5925383076
 10
297.3729188501
 20
-17.6488100666
 10
297.9292525907
 20
-16.7399356917
 10
298.5418758985
 20
-15.8786737867
 10
299.2021888852
 20
-15.0771145809
 10
299.9009222039
 20
-14.3465102086
 10
300.6282671703
 20
-13.6971167536
 10
301.3740134556
 20
-13.1380502766
 10
302.1276924166
 20
-12.6771588453
 10
302.8787240528
 20
-12.3209123652
 10
303.6165655262
 20
-12.074311756
 10
304.33085916
 20
-11.9408187496
 10
305.0115778373
 20
-11.9223072954
 10
305.6491657599
 20
-12.0190372534
 10
306.2346725912
 20
-12.2296507471
 10
306.7598790986
 20
-12.5511912248
 10
307.217412534
 20
-12.979144963
 10
307.6008501309
 20
-13.5075044292
 10
307.904809266
 20
-14.1288526147
 10
308.1250230193
 20
-14.8344671531
 10
308.2584000724
 20
-15.6144427629
 10
308.3030681038
 20
-16.4578302963
  0
LWPOLYLINE
  5
10E
330
1F
100
AcDbEntity
  8
0
  6
Continuous
 62
     7
370
    25
100
AcDbPolyline
 90
       92
 70
   128
 43
0.0
 10
320.6774367746
 20
-45.6094984062
 10
320.6327884374
 20
-47.1281265968
 10
320.4990561954
 20
-48.6910677054
 10
320.2768773438
 20
-50.2908736059
 10
319.9673106658
 20
-51.9199204945
 10
319.5718313876
 20
-53.5704452209
 10
319.0923241483
 20
-55.2345822833
 10
318.531074018
 20
-56.9044013106
 10
317.8907556093
 20
-58.5719448548
 10
317.174420331
 20
-60.2292663115
 10
316.3854818468
 20
-61.8684677891
 10
315.5276998081
 20
-63.4817377462
 10
314.6051619367
 20
-65.0613882168
 10
313.6222645459
 20
-66.5998914469
 10
312.5836915892
 20
-68.0899157681
 10
311.4943923397
 20
-69.524360536
 10
310.3595578046
 20
-70.8963899678
 10
309.184595987
 20
-72.1994657187
 10
307.9751061152
 20
-73.4273780392
 10
306.7368519591
 20
-74.5742753679
 10
305.4757343638
 20
-75.6346922168
 10
304.1977631289
 20
-76.6035752166
 10
302.9090283693
 20
-77.4763071987
 10
301.615671493
 20
-78.2487291977
 10
300.3238559346
 20
-78.917160271
 10
299.0397377834
 20
-79.4784150401
 10
297.7694364472
 20
-79.9298188706
 10
296.5190054904
 20
-80.2692206175
 10
295.294403786
 20
-80.4950028771
 10
294.1014671187
 20
-80.6060896939
 10
292.9458803751
 20
-80.6019516887
 10
291.8331504521
 20
-80.482608581
 10
290.7685800147
 20
-80.2486290951
 10
289.7572422257
 20
-79.9011282498
 10
288.8039565704
 20
-79.4417620448
 10
287.9132658889
 20
-78.8727195693
 10
287.0894147279
 20
-78.1967125698
 10
286.3363291135
 20
-77.4169625276
 10
285.6575978416
 20
-76.5371853067
 10
285.0564553757
 20
-75.5615734462
 10
284.5357664334
 20
-74.4947761809
 10
284.0980123348
 20
-73.3418772855
 10
283.7452791773
 20
-72.1083708485
 10
283.4792478952
 20
-70.8001350896
 10
283.3011862487
 20
-69.423404348
 10
283.2119427825
 20
-67.9847393727
 10
283.2119427825
 20
-66.4909960574
 10
283.3011862487
 20
-64.9492927693
 10
283.4792478952
 20
-63.3669764266
 10
283.7452791773
 20
-61.7515874873
 10
284.0980123348
 20
-60.1108240154
 10
284.5357664334
 20
-58.4525049959
 10
285.0564553757
 20
-56.7845330742
 10
285.6575978416
 20
-55.1148568961
 10
286.3363291135
 20
-53.451433229
 10
287.0894147279
 20
-51.8021890441
 10
287.9132658889
 20
-50.1749837411
 10
288.8039565704
 20
-48.5775716942
 10
289.7572422257
 20
-47.0175652993
 10
290.7685800147
 20
-45.5023986973
 10
291.8331504521
 20
-44.039292347
 10
292.9458803751
 20
-42.6352186166
 10
294.1014671187
 20
-41.2968685567
 10
295.294403786
 20
-40.0306200148
 10
296.5190054904
 20
-38.842507242
 10
297.7694364472
 20
-37.7381921366
 10
299.0397377834
 20
-36.7229372631
 10
300.3238559346
 20
-35.8015807731
 10
301.615671493
 20
-34.9785133501
 10
302.9090283693
 20
-34.2576572851
 10
304.1977631289
 20
-33.6424477854
 10
305.4757343638
 20
-33.1358166046
 10
306.7368519591
 20
-32.740178071
 10
307.9751061152
 20
-32.4574175822
 10
309.184595987
 20
-32.2888826209
 10
310.3595578046
 20
-32.2353763329
 10
311.4943923397
 20
-32.2971536999
 10
312.5836915892
 20
-32.4739203248
 10
313.6222645459
 20
-32.764833834
 10
314.6051619367
 20
-33.1685078921
 10
315.5276998081
 20
-33.6830188086
 10
316.3854818468
 20
-34.3059147045
 10
317.174420331
 20
-35.0342271972
 10
317.8907556093
 20
-35.864485546
 10
318.531074018
 20
-36.7927331919
 10
319.0923241483
 20
-37.814546612
 10
319.5718313876
 20
-38.9250564
 10
319.9673106658
 20
-40.1189704712
 10
320.2768773438
 20
-41.3905992813
 10
320.4990561954
 20
-42.7338829398
 10
320.6327884374
 20
-44.1424200884
 10
320.6774367746
 20
-45.6094984062
  0
LWPOLYLINE
  5
10F
330
1F
100
AcDbEntity
  8
0
  6
Continuous
 62
     7
370
    25
100
AcDbPolyline
 90
       54
 70
   128
 43
0.0
 10
339.7339645276
 20
-34.6083990994
 10
339.6892964961
 20
-35.5033592441
 10
339.555919443
 20
-36.4373287216
 10
339.3357056898
 20
-37.3971966475
 10
339.0317465547
 20
-38.3694885804
 10
338.6483089577
 20
-39.3405556727
 10
338.1907755223
 20
-40.2967662712
 10
337.6655690149
 20
-41.2246972749
 10
337.0800621837
 20
-42.1113225667
 10
336.442474261
 20
-42.944195871
 10
335.7617555837
 20
-43.7116254722
 10
335.04746195
 20
-44.4028383411
 10
334.3096204765
 20
-45.008131364
 10
333.5585888404
 20
-45.5190075538
 10
332.8049098794
 20
-45.9282953286
 10
332.0591635941
 20
-46.2302491853
 10
331.3318186276
 20
-46.4206303534
 10
330.633085309
 20
-46.4967662989
 10
329.9727723223
 20
-46.4575882398
 10
329.3601490144
 20
-46.3036461503
 10
328.8038152738
 20
-46.0371010399
 10
328.3115808067
 20
-45.6616946176
 10
327.8903555059
 20
-45.1826967667
 10
327.5460524514
 20
-44.6068315671
 10
327.2835049033
 20
-43.9421829038
 10
327.1063984536
 20
-43.1980809872
 10
327.0172192888
 20
-42.384971377
 10
327.0172192888
 20
-41.5142683498
 10
327.1063984536
 20
-40.5981946676
 10
327.2835049033
 20
-39.6496099968
 10
327.5460524514
 20
-38.6818303868
 10
327.8903555059
 20
-37.7084413419
 10
328.3115808067
 20
-36.7431071107
 10
328.8038152738
 20
-35.7993788697
 10
329.3601490144
 20
-34.8905044947
 10
329.9727723223
 20
-34.0292425897
 10
330.633085309
 20
-33.227683384
 10
331.3318186276
 20
-32.4970790117
 10
332.0591635941
 20
-31.8476855567
 10
332.8049098794
 20
-31.2886190796
 10
333.5585888404
 20
-30.8277276483
 10
334.3096204765
 20
-30.4714811683
 10
335.04746195
 20
-30.2248805591
 10
335.7617555837
 20
-30.0913875527
 10
336.442474261
 20
-30.0728760984
 10
337.0800621837
 20
-30.1696060565
 10
337.6655690149
 20
-30.3802195502
 10
338.1907755223
 20
-30.7017600279
 10
338.6483089577
 20
-31.129713766
 10
339.0317465547
 20
-31.6580732322
 10
339.3357056898
 20
-32.2794214178
 10
339.555919443
 20
-32.9850359562
 10
339.6892964961
 20
-33.765011566
 10
339.7339645276
 20
-34.6083990994
  0
LWPOLYLINE
  5
110
330
1F
100
AcDbEntity
  8
0
  6
Continuous
 62
     7
370
    25
100
AcDbPolyline
 90
       54
 70
   128
 43
0.0
 10
276.8721716801
 20
-70.8977396699
 10
276.8275036487
 20
-71.7926998146
 10
276.6941265956
 20
-72.7266692921
 10
276.4739128423
 20
-73.6865372181
 10
276.1699537072
 20
-74.6588291509
 10
275.7865161103
 20
-75.6298962433
 10
275.3289826748
 20
-76.5861068417
 10
274.8037761675
 20
-77.5140378454
 10
274.2182693362
 20
-78.4006631372
 10
273.5806814135
 20
-79.2335364415
 10
272.8999627363
 20
-80.0009660428
 10
272.1856691025
 20
-80.6921789116
 10
271.4478276291
 20
-81.2974719346
 10
270.6967959929
 20
-81.8083481244
 10
269.9431170319
 20
-82.2176358992
 10
269.1973707466
 20
-82.5195897558
 10
268.4700257801
 20
-82.7099709239
 10
267.7712924615
 20
-82.7861068694
 10
267.1109794748
 20
-82.7469288103
 10
266.498356167
 20
-82.5929867209
 10
265.9420224264
 20
-82.3264416104
 10
265.4497879592
 20
-81.9510351881
 10
265.0285626584
 20
-81.4720373373
 10
264.6842596039
 20
-80.8961721376
 10
264.4217120558
 20
-80.2315234743
 10
264.2446056062
 20
-79.4874215577
 10
264.1554264414
 20
-78.6743119475
 10
264.1554264414
 20
-77.8036089203
 10
264.2446056062
 20
-76.8875352381
 10
264.4217120558
 20
-75.9389505673
 10
264.6842596039
 20
-74.9711709573
 10
265.0285626584
 20
-73.9977819124
 10
265.4497879592
 20
-73.0324476812
 10
265.9420224264
 20
-72.0887194402
 10
266.498356167
 20
-71.1798450652
 10
267.1109794748
 20
-70.3185831603
 10
267.7712924615
 20
-69.5170239545
 10
268.4700257801
 20
-68.7864195822
 10
269.1973707466
 20
-68.1370261272
 10
269.9431170319
 20
-67.5779596501
 10
270.6967959929
 20
-67.1170682189
 10
271.4478276291
 20
-66.7608217388
 10
272.1856691025
 20
-66.5142211296
 10
272.8999627363
 20
-66.3807281232
 10
273.5806814135
 20
-66.3622166689
 10
274.2182693362
 20
-66.458946627
 10
274.8037761675
 20
-66.6695601207
 10
275.3289826748
 20
-66.9911005984
 10
275.7865161103
 20
-67.4190543365
 10
276.1699537072
 20
-67.9474138028
 10
276.4739128423
 20
-68.5687619883
 10
276.6941265956
 20
-69.2743765267
 10
276.8275036487
 20
-70.0543521365
 10
276.8721716801
 20
-70.8977396699
  0
LINE
  5
111
330
1F
100
AcDbEntity
  8
0
  6
Continuous
 62
     7
370
    25
100
AcDbLine
 10
315.3951776955
 20
-34.750863953
 30
0.0
 11
315.3245274409
 21
-34.7105279105
 31
0.0
  0
LINE
  5
112
330
1F
100
AcDbEntity
  8
0
  6
Continuous
 62
     7
370
    25
100
AcDbLine
 10
289.8972500132
 20
-78.9193559344
 30
0.0
 11
289.9342876803
 21
-78.9406134716
 31
0.0
  0
LWPOLYLINE
  5
113
330
1F
100
AcDbEntity
  8
0
  6
Continuous
 62
     1
370
    25
100
AcDbPolyline
 90
       53
 70
   128
 43
0.0
 10
348.6081546315
 20
-30.3018463095
 10
348.5631683028
 20
-32.6755079994
 10
348.4282973794
 20
-35.0964632446
 10
348.2038058777
 20
-37.5599729116
 10
347.8901332502
 20
-40.0612145644
 10
347.4878935258
 20
-42.5952919052
 10
346.9978741077
 20
-45.1572443585
 10
346.4210342318
 20
-47.7420567821
 10
345.7585030895
 20
-50.3446692843
 10
345.0115776163
 20
-52.9599871288
 10
344.1817199542
 20
-55.5828907082
 10
343.2705545883
 20
-58.2082455656
 10
342.2798651678
 20
-60.8309124455
 10
341.2115910136
 20
-63.4457573544
 10
340.0678233225
 20
-66.0476616105
 10
338.8508010737
 20
-68.6315318642
 10
337.5629066451
 20
-71.1923100679
 10
336.2066611508
 20
-73.7249833782
 10
334.7847195048
 20
-76.2245939681
 10
333.2998652248
 20
-78.6862487325
 10
331.7550049828
 20
-81.1051288666
 10
330.1531629152
 20
-83.4764992989
 10
328.497474703
 20
-85.7957179605
 10
326.7911814338
 20
-88.0582448718
 10
325.0376232567
 20
-90.2596510304
 10
323.2402328442
 20
-92.3956270801
 10
321.4025286724
 20
-94.4619917476
 10
319.5281081336
 20
-96.454700027
 10
317.6206404939
 20
-98.3698510983
 10
315.6838597109
 20
-100.2036959634
 10
313.7215571239
 20
-101.9526447846
 10
311.7375740323
 20
-103.6132739128
 10
309.7357941762
 20
-105.1823325882
 10
307.7201361338
 20
-106.6567493049
 10
305.6945456502
 20
-108.033637823
 10
303.662987914
 20
-109.3103028184
 10
301.6294397948
 20
-110.4842451596
 10
299.5978820585
 20
-111.5531667992
 10
297.5722915749
 20
-112.5149752729
 10
295.5566335325
 20
-113.3677877955
 10
293.5548536764
 20
-114.1099349465
 10
291.5708705848
 20
-114.7399639379
 10
289.6085679978
 20
-115.2566414584
 10
287.6717872148
 20
-115.6589560874
 10
285.7643195751
 20
-115.9461202753
 10
283.8898990363
 20
-116.1175718846
 10
282.0521948645
 20
-116.1729752907
 10
280.254804452
 20
-116.1122220389
 10
278.5012462749
 20
-115.9354310565
 10
276.7949530057
 20
-115.6429484202
 10
275.1392647935
 20
-115.2353466784
 10
273.5374227259
 20
-114.7134237308
 10
273.1397095241
 20
-114.5628445665
  0
LWPOLYLINE
  5
114
330
1F
100
AcDbEntity
  8
0
  6
Continuous
 62
     1
370
    25
100
AcDbPolyline
 90
       17
 70
   128
 43
0.0
 10
337.7695687221
 20
-2.3254111233
 10
338.8508010737
 20
-3.2377613776
 10
340.0678233225
 20
-4.416487652
 10
341.2115910136
 20
-5.6978258412
 10
342.2798651678
 20
-7.0792676653
 10
343.2705545883
 20
-8.5581088873
 10
344.1817199542
 20
-10.1314546059
 10
345.0115776163
 20
-11.796224923
 10
345.7585030895
 20
-13.5491609726
 10
346.4210342318
 20
-15.3868313
 10
346.9978741077
 20
-17.3056385793
 10
347.4878935258
 20
-19.301826655
 10
347.8901332502
 20
-21.3714878954
 10
348.2038058777
 20
-23.5105708413
 10
348.4282973794
 20
-25.7148881375
 10
348.5631683028
 20
-27.9801247292
 10
348.6081546315
 20
-30.3018463095
  0
LWPOLYLINE
  5
115
330
1F
100
AcDbEntity
  8
0
  6
Continuous
 62
     1
370
    25
100
AcDbPolyline
 90
       17
 70
   128
 43
0.0
 10
358.5076495681
 20
-36.0167030922
 10
358.4626632394
 20
-33.6949815119
 10
358.327792316
 20
-31.4297449202
 10
358.1033008143
 20
-29.2254276241
 10
357.7896281868
 20
-27.0863446782
 10
357.3873884624
 20
-25.0166834378
 10
356.8973690443
 20
-23.020495362
 10
356.3205291684
 20
-21.1016880828
 10
355.6579980261
 20
-19.2640177553
 10
354.911072553
 20
-17.5110817058
 10
354.0812148908
 20
-15.8463113886
 10
353.1700495249
 20
-14.27296567
 10
352.1793601044
 20
-12.7941244481
 10
351.1110859502
 20
-11.4126826239
 10
349.9673182591
 20
-10.1313444348
 10
348.7502960103
 20
-8.9526181604
 10
347.8250891326
 20
-8.1648083301
  0
LWPOLYLINE
  5
116
330
1F
100
AcDbEntity
  8
0
  6
Continuous
 62
     1
370
    25
100
AcDbPolyline
 90
       53
 70
   128
 43
0.0
 10
282.9136449373
 20
-120.2283434351
 10
283.4369176625
 20
-120.4282805136
 10
285.0387597301
 20
-120.9502034612
 10
286.6944479423
 20
-121.3578052029
 10
288.4007412115
 20
-121.6502878393
 10
290.1542993886
 20
-121.8270788216
 10
291.9516898011
 20
-121.8878320734
 10
293.7893939729
 20
-121.8324286673
 10
295.6638145118
 20
-121.660977058
 10
297.5712821514
 20
-121.3738128702
 10
299.5080629344
 20
-120.9714982411
 10
301.4703655215
 20
-120.4548207206
 10
303.454348613
 20
-119.8247917292
 10
305.4561284691
 20
-119.0826445783
 10
307.4717865115
 20
-118.2298320557
 10
309.4973769951
 20
-117.2680235819
 10
311.5289347314
 20
-116.1991019423
 10
313.5624828506
 20
-115.0251596012
 10
315.5940405868
 20
-113.7484946057
 10
317.6196310704
 20
-112.3716060877
 10
319.6352891129
 20
-110.897189371
 10
321.6370689689
 20
-109.3281306955
 10
323.6210520605
 20
-107.6675015674
 10
325.5833546475
 20
-105.9185527461
 10
327.5201354305
 20
-104.0847078811
 10
329.4276030702
 20
-102.1695568098
 10
331.302023609
 20
-100.1768485304
 10
333.1397277808
 20
-98.1104838629
 10
334.9371181933
 20
-95.9745078131
 10
336.6906763704
 20
-93.7731016546
 10
338.3969696396
 20
-91.5105747432
 10
340.0526578518
 20
-89.1913560816
 10
341.6544999194
 20
-86.8199856493
 10
343.1993601614
 20
-84.4011055152
 10
344.6842144414
 20
-81.9394507509
 10
346.1061560874
 20
-79.439840161
 10
347.4624015817
 20
-76.9071668507
 10
348.7502960103
 20
-74.3463886469
 10
349.9673182591
 20
-71.7625183933
 10
351.1110859502
 20
-69.1606141372
 10
352.1793601044
 20
-66.5457692283
 10
353.1700495249
 20
-63.9231023484
 10
354.0812148908
 20
-61.297747491
 10
354.911072553
 20
-58.6748439116
 10
355.6579980261
 20
-56.059526067
 10
356.3205291684
 20
-53.4569135649
 10
356.8973690443
 20
-50.8721011413
 10
357.3873884624
 20
-48.310148688
 10
357.7896281868
 20
-45.7760713472
 10
358.1033008143
 20
-43.2748296943
 10
358.327792316
 20
-40.8113200273
 10
358.4626632394
 20
-38.3903647821
 10
358.5076495681
 20
-36.0167030922
  0
LWPOLYLINE
  5
117
330
1F
100
AcDbEntity
  8
0
  6
Continuous
 62
     1
370
    25
100
AcDbPolyline
 90
       27
 70
   128
 43
0.0
 10
338.1041412501
 20
-31.7780585481
 10
337.6829248832
 20
-31.5756031243
 10
337.1082043603
 20
-31.4252006124
 10
336.4856816729
 20
-31.3893752603
 10
335.8251743759
 20
-31.4686920552
 10
335.1370990638
 20
-31.6619001238
 10
334.4323070953
 20
-31.9659524596
 10
333.7219134609
 20
-32.3760539755
 10
333.0171214924
 20
-32.8857371257
 10
332.3290461803
 20
-33.4869639023
 10
331.6685388833
 20
-34.1702526001
 10
331.0460161959
 20
-34.924827348
 10
330.471295673
 20
-35.7387880515
 10
329.9534410003
 20
-36.599298064
 10
329.5006190556
 20
-37.4927866287
 10
329.1199711112
 20
-38.4051628972
 10
328.8175002128
 20
-39.3220381505
 10
328.5979765071
 20
-40.2289527184
 10
328.464862014
 20
-41.1116040162
 10
328.4202560286
 20
-41.9560721058
 10
328.464862014
 20
-42.7490392208
 10
328.5979765071
 20
-43.4779997963
 10
328.8175002128
 20
-44.1314576885
 10
329.1199711112
 20
-44.699107476
 10
329.5006190556
 20
-45.1719969827
 10
329.9534410003
 20
-45.5426684584
 10
330.0663114894
 20
-45.6123730772
  0
LWPOLYLINE
  5
118
330
1F
100
AcDbEntity
  8
0
  6
Continuous
 62
     1
370
    25
100
AcDbPolyline
 90
       27
 70
   128
 43
0.0
 10
306.6732448263
 20
-86.2179679216
 10
306.2520284595
 20
-86.0155124978
 10
305.6773079365
 20
-85.8651099859
 10
305.0547852492
 20
-85.8292846338
 10
304.3942779521
 20
-85.9086014287
 10
303.70620264
 20
-86.1018094974
 10
303.0014106716
 20
-86.4058618332
 10
302.2910170371
 20
-86.8159633491
 10
301.5862250687
 20
-87.3256464993
 10
300.8981497566
 20
-87.9268732759
 10
300.2376424595
 20
-88.6101619737
 10
299.6151197722
 20
-89.3647367216
 10
299.0403992492
 20
-90.1786974251
 10
298.5225445766
 20
-91.0392074376
 10
298.0697226318
 20
-91.9326960023
 10
297.6890746875
 20
-92.8450722707
 10
297.3866037891
 20
-93.7619475241
 10
297.1670800833
 20
-94.6688620919
 10
297.0339655902
 20
-95.5515133898
 10
296.9893596049
 20
-96.3959814793
 10
297.0339655902
 20
-97.1889485944
 10
297.1670800833
 20
-97.9179091699
 10
297.3866037891
 20
-98.5713670621
 10
297.6890746875
 20
-99.1390168496
 10
298.0697226318
 20
-99.6119063563
 10
298.5225445766
 20
-99.982577832
 10
298.6354150657
 20
-100.0522824508
  0
LWPOLYLINE
  5
119
330
1F
100
AcDbEntity
  8
0
  6
Continuous
 62
     1
370
    25
100
AcDbPolyline
 90
       46
 70
   128
 43
0.0
 10
315.3245274409
 20
-34.7105279105
 10
314.5847917595
 20
-34.3390502893
 10
313.6018752767
 20
-33.97287898
 10
312.5643782399
 20
-33.7206061554
 10
311.4774694069
 20
-33.583488626
 10
310.3465637031
 20
-33.5622095044
 10
309.1772952436
 20
-33.6568748022
 10
307.9754892652
 20
-33.8670129015
 10
306.7471331047
 20
-34.1915769049
 10
305.4983463709
 20
-34.628949851
 10
304.2353504563
 20
-35.1769527696
 10
302.964437543
 20
-35.8328555378
 10
301.6919392554
 20
-36.593390481
 10
300.4241951158
 20
-37.4547686524
 10
299.1675209618
 20
-38.4126987093
 10
297.9281774808
 20
-39.4624082922
 10
296.7123390197
 20
-40.5986678009
 10
295.5260628246
 20
-41.8158164477
 10
294.3752588637
 20
-43.1077904591
 10
293.2656603845
 20
-44.4681532857
 10
292.2027953509
 20
-45.8901276683
 10
291.1919589029
 20
-47.3666294021
 10
290.238186977
 20
-48.8903026296
 10
289.3462312168
 20
-50.4535564875
 10
288.5205353011
 20
-52.0486029238
 10
287.7652128054
 20
-53.6674954972
 10
287.0840267083
 20
-55.3021689665
 10
286.4803706449
 20
-56.9444794707
 10
285.9572519991
 20
-58.5862451013
 10
285.5172769219
 20
-60.2192866647
 10
285.1626373468
 20
-61.8354684299
 10
284.8951000704
 20
-63.4267386606
 10
284.71599795
 20
-64.9851697286
 10
284.6262232633
 20
-66.5029976088
 10
284.6262232633
 20
-67.9726605589
 10
284.71599795
 20
-69.3868367921
 10
284.8951000704
 20
-70.7384809535
 10
285.1626373468
 20
-72.0208592198
 10
285.5172769219
 20
-73.2275828472
 10
285.9572519991
 20
-74.3526399991
 10
286.4803706449
 20
-75.3904256974
 10
287.0840267083
 20
-76.3357697461
 10
287.7652128054
 20
-77.1839624884
 10
288.5205353011
 20
-77.930778271
 10
289.3462312168
 20
-78.5724964952
 10
289.8972500132
 20
-78.9193559344
  0
LWPOLYLINE
  5
11A
330
1F
100
AcDbEntity
  8
0
  6
Continuous
 62
     1
370
    25
100
AcDbPolyline
 90
       35
 70
   128
 43
0.0
 10
295.8058958701
 20
-79.9517451042
 10
295.4167718585
 20
-78.9424396299
 10
295.0621322834
 20
-77.7357160026
 10
294.794595007
 20
-76.4533377362
 10
294.6154928866
 20
-75.1016935748
 10
294.5257181999
 20
-73.6875173416
 10
294.5257181999
 20
-72.2178543915
 10
294.6154928866
 20
-70.7000265114
 10
294.794595007
 20
-69.1415954434
 10
295.0621322834
 20
-67.5503252126
 10
295.4167718585
 20
-65.9341434474
 10
295.8567469358
 20
-64.3011018841
 10
296.3798655815
 20
-62.6593362534
 10
296.983521645
 20
-61.0170257493
 10
297.664707742
 20
-59.38235228
 10
298.4200302377
 20
-57.7634597065
 10
299.2457261534
 20
-56.1684132703
 10
300.1376819136
 20
-54.6051594124
 10
301.0914538396
 20
-53.0814861848
 10
302.1022902875
 20
-51.6049844511
 10
303.1651553212
 20
-50.1830100685
 10
304.2747538003
 20
-48.8226472419
 10
305.4255577612
 20
-47.5306732304
 10
306.6118339563
 20
-46.3135245837
 10
307.8276724174
 20
-45.177265075
 10
309.0670158984
 20
-44.127555492
 10
310.3236900524
 20
-43.1696254352
 10
311.591434192
 20
-42.3082472638
 10
312.8639324796
 20
-41.5477123206
 10
314.1348453929
 20
-40.8918095523
 10
315.3978413075
 20
-40.3438066337
 10
316.6466280413
 20
-39.9064336877
 10
317.8749842018
 20
-39.5818696842
 10
319.0767901802
 20
-39.3717315849
 10
319.2271713094
 20
-39.353297333
  0
LWPOLYLINE
  5
11B
330
1F
100
AcDbEntity
  8
0
  6
Continuous
 62
     1
370
    25
100
AcDbPolyline
 90
       27
 70
   128
 43
0.0
 10
306.6732448263
 20
-13.627489745
 10
306.2520284595
 20
-13.4250343212
 10
305.6773079365
 20
-13.2746318093
 10
305.0547852492
 20
-13.2388064572
 10
304.3942779521
 20
-13.3181232521
 10
303.70620264
 20
-13.5113313208
 10
303.0014106716
 20
-13.8153836565
 10
302.2910170371
 20
-14.2254851724
 10
301.5862250687
 20
-14.7351683226
 10
300.8981497566
 20
-15.3363950993
 10
300.2376424595
 20
-16.019683797
 10
299.6151197722
 20
-16.7742585449
 10
299.0403992492
 20
-17.5882192484
 10
298.5225445766
 20
-18.448729261
 10
298.0697226318
 20
-19.3422178257
 10
297.6890746875
 20
-20.2545940941
 10
297.3866037891
 20
-21.1714693475
 10
297.1670800833
 20
-22.0783839153
 10
297.0339655902
 20
-22.9610352131
 10
296.9893596049
 20
-23.8055033027
 10
297.0339655902
 20
-24.5984704178
 10
297.1670800833
 20
-25.3274309933
 10
297.3866037891
 20
-25.9808888854
 10
297.6890746875
 20
-26.548538673
 10
298.0697226318
 20
-27.0214281796
 10
298.5225445766
 20
-27.3920996554
 10
298.6354150657
 20
-27.4618042742
  0
LWPOLYLINE
  5
11C
330
1F
100
AcDbEntity
  8
0
  6
Continuous
 62
     1
370
    25
100
AcDbPolyline
 90
       27
 70
   128
 43
0.0
 10
275.2423484026
 20
-68.0673991186
 10
274.8211320357
 20
-67.8649436948
 10
274.2464115128
 20
-67.7145411829
 10
273.6238888254
 20
-67.6787158308
 10
272.9633815284
 20
-67.7580326257
 10
272.2753062163
 20
-67.9512406943
 10
271.5705142478
 20
-68.2552930301
 10
270.8601206134
 20
-68.665394546
 10
270.1553286449
 20
-69.1750776962
 10
269.4672533328
 20
-69.7763044729
 10
268.8067460358
 20
-70.4595931706
 10
268.1842233484
 20
-71.2141679185
 10
267.6095028255
 20
-72.028128622
 10
267.0916481528
 20
-72.8886386346
 10
266.6388262081
 20
-73.7821271993
 10
266.2581782637
 20
-74.6945034677
 10
265.9557073653
 20
-75.611378721
 10
265.7361836596
 20
-76.5182932889
 10
265.6030691665
 20
-77.4009445867
 10
265.5584631811
 20
-78.2454126763
 10
265.6030691665
 20
-79.0383797914
 10
265.7361836596
 20
-79.7673403669
 10
265.9557073653
 20
-80.420798259
 10
266.2581782637
 20
-80.9884480466
 10
266.6388262081
 20
-81.4613375532
 10
267.0916481528
 20
-81.8320090289
 10
267.2045186419
 20
-81.9017136478
  0
ENDSEC
  0
SECTION
  2
OBJECTS
  0
DICTIONARY
  5
C
330
0
100
AcDbDictionary
281
     1
  3
ACAD_GROUP
350
D
  3
ACAD_LAYOUT
350
1A
  3
ACAD_MLINESTYLE
350
17
  3
ACAD_PLOTSETTINGS
350
19
  3
ACAD_PLOTSTYLENAME
350
E
  3
ACAD_SCALELIST
350
47
  3
DWGPROPS
350
11D
  0
DICTIONARY
  5
D
102
{ACAD_REACTORS
330
C
102
}
330
C
100
AcDbDictionary
281
     1
  0
DICTIONARY
  5
1A
102
{ACAD_REACTORS
330
C
102
}
330
C
100
AcDbDictionary
281
     1
  3
Layout1
350
1E
  3
Layout2
350
26
  3
Model
350
22
  0
DICTIONARY
  5
17
102
{ACAD_REACTORS
330
C
102
}
330
C
100
AcDbDictionary
281
     1
  3
Standard
350
18
  0
DICTIONARY
  5
19
102
{ACAD_REACTORS
330
C
102
}
330
C
100
AcDbDictionary
281
     1
  0
ACDBDICTIONARYWDFLT
  5
E
102
{ACAD_REACTORS
330
C
102
}
330
C
100
AcDbDictionary
281
     1
  3
Normal
350
F
100
AcDbDictionaryWithDefault
340
F
  0
DICTIONARY
  5
47
102
{ACAD_REACTORS
330
C
102
}
330
C
100
AcDbDictionary
281
     1
  3
A0
350
48
  3
A1
350
49
  3
A2
350
4A
  3
A3
350
4B
  3
A4
350
4C
  3
A5
350
4D
  3
A6
350
4E
  3
A7
350
4F
  3
A8
350
50
  3
A9
350
51
  3
B0
350
52
  3
B1
350
53
  3
B2
350
54
  3
B3
350
55
  3
B4
350
56
  3
B5
350
57
  3
B6
350
58
  3
B7
350
59
  3
B8
350
5A
  3
B9
350
5B
  3
C0
350
5C
  3
C1
350
5D
  3
C2
350
5E
  3
C3
350
5F
  3
C4
350
60
  3
C5
350
61
  3
C6
350
62
  3
C7
350
63
  3
C8
350
64
  3
C9
350
65
  3
D0
350
66
  3
D1
350
67
  3
D2
350
68
  0
XRECORD
  5
11D
102
{ACAD_REACTORS
330
C
102
}
330
C
100
AcDbXrecord
280
     1
  1
DWGPROPS COOKIE
  2

  3

  4

  6

  7

  8
b.kav
  9

300
=
301
=
302
=
303
=
304
=
305
=
306
=
307
=
308
=
309
=
 40
0.0
 41
2459741.463635093
 42
2459741.46363662
  1

 90
        0
  0
LAYOUT
  5
1E
102
{ACAD_REACTORS
330
1A
102
}
330
1A
100
AcDbPlotSettings
  1

  2
none_device
  4

  6

 40
0.0
 41
0.0
 42
0.0
 43
0.0
 44
0.0
 45
0.0
 46
0.0
 47
0.0
 48
0.0
 49
0.0
140
0.0
141
0.0
142
1.0
143
1.0
 70
   688
 72
     1
 73
     0
 74
     5
  7

 75
    16
147
1.0
148
0.0
149
0.0
100
AcDbLayout
  1
Layout1
 70
     1
 71
     1
 10
0.0
 20
0.0
 11
420.0
 21
297.0
 12
0.0
 22
0.0
 32
0.0
 14
1.0000000000E+20
 24
1.0000000000E+20
 34
1.0000000000E+20
 15
-1.0000000000E+20
 25
-1.0000000000E+20
 35
-1.0000000000E+20
146
0.0
 13
0.0
 23
0.0
 33
0.0
 16
1.0
 26
0.0
 36
0.0
 17
0.0
 27
1.0
 37
0.0
 76
     0
330
1B
  0
LAYOUT
  5
26
102
{ACAD_REACTORS
330
1A
102
}
330
1A
100
AcDbPlotSettings
  1

  2
none_device
  4

  6

 40
0.0
 41
0.0
 42
0.0
 43
0.0
 44
0.0
 45
0.0
 46
0.0
 47
0.0
 48
0.0
 49
0.0
140
0.0
141
0.0
142
1.0
143
1.0
 70
   688
 72
     1
 73
     0
 74
     5
  7

 75
    16
147
1.0
148
0.0
149
0.0
100
AcDbLayout
  1
Layout2
 70
     1
 71
     2
 10
0.0
 20
0.0
 11
0.0
 21
0.0
 12
0.0
 22
0.0
 32
0.0
 14
0.0
 24
0.0
 34
0.0
 15
0.0
 25
0.0
 35
0.0
146
0.0
 13
0.0
 23
0.0
 33
0.0
 16
1.0
 26
0.0
 36
0.0
 17
0.0
 27
1.0
 37
0.0
 76
     0
330
23
  0
LAYOUT
  5
22
102
{ACAD_REACTORS
330
1A
102
}
330
1A
100
AcDbPlotSettings
  1

  2
none_device
  4
Letter_(8.50_x_11.00_Inches)
  6

 40
6.35
 41
6.35
 42
6.35000508
 43
6.35000508
 44
215.9
 45
279.4
 46
0.0
 47
0.0
 48
0.0
 49
0.0
140
0.0
141
0.0
142
1.0
143
1.0
 70
  1712
 72
     1
 73
     0
 74
     0
  7

 75
     0
147
1.0
148
0.0
149
0.0
100
AcDbLayout
  1
Model
 70
     1
 71
     0
 10
0.0
 20
0.0
 11
279.4
 21
215.9
 12
0.0
 22
0.0
 32
0.0
 14
0.0
 24
0.0
 34
0.0
 15
279.4
 25
215.9
 35
0.0
146
0.0
 13
0.0
 23
0.0
 33
0.0
 16
1.0
 26
0.0
 36
0.0
 17
0.0
 27
1.0
 37
0.0
 76
     0
330
1F
331
29
  0
MLINESTYLE
  5
18
102
{ACAD_REACTORS
330
17
102
}
330
17
100
AcDbMlineStyle
  2
Standard
 70
     0
  3

 62
   256
 51
90.0
 52
90.0
 71
     2
 49
0.5
 62
   256
  6
BYLAYER
 49
-0.5
 62
   256
  6
BYLAYER
  0
ACDBPLACEHOLDER
  5
F
102
{ACAD_REACTORS
330
E
102
}
330
E
  0
SCALE
  5
48
102
{ACAD_REACTORS
330
47
102
}
330
47
100
AcDbScale
 70
     0
300
1:1
140
1.0
141
1.0
290
     1
  0
SCALE
  5
49
102
{ACAD_REACTORS
330
47
102
}
330
47
100
AcDbScale
 70
     0
300
1:2
140
1.0
141
2.0
290
     0
  0
SCALE
  5
4A
102
{ACAD_REACTORS
330
47
102
}
330
47
100
AcDbScale
 70
     0
300
1:4
140
1.0
141
4.0
290
     0
  0
SCALE
  5
4B
102
{ACAD_REACTORS
330
47
102
}
330
47
100
AcDbScale
 70
     0
300
1:5
140
1.0
141
5.0
290
     0
  0
SCALE
  5
4C
102
{ACAD_REACTORS
330
47
102
}
330
47
100
AcDbScale
 70
     0
300
1:8
140
1.0
141
8.0
290
     0
  0
SCALE
  5
4D
102
{ACAD_REACTORS
330
47
102
}
330
47
100
AcDbScale
 70
     0
300
1:10
140
1.0
141
10.0
290
     0
  0
SCALE
  5
4E
102
{ACAD_REACTORS
330
47
102
}
330
47
100
AcDbScale
 70
     0
300
1:16
140
1.0
141
16.0
290
     0
  0
SCALE
  5
4F
102
{ACAD_REACTORS
330
47
102
}
330
47
100
AcDbScale
 70
     0
300
1:20
140
1.0
141
20.0
290
     0
  0
SCALE
  5
50
102
{ACAD_REACTORS
330
47
102
}
330
47
100
AcDbScale
 70
     0
300
1:30
140
1.0
141
30.0
290
     0
  0
SCALE
  5
51
102
{ACAD_REACTORS
330
47
102
}
330
47
100
AcDbScale
 70
     0
300
1:40
140
1.0
141
40.0
290
     0
  0
SCALE
  5
52
102
{ACAD_REACTORS
330
47
102
}
330
47
100
AcDbScale
 70
     0
300
1:50
140
1.0
141
50.0
290
     0
  0
SCALE
  5
53
102
{ACAD_REACTORS
330
47
102
}
330
47
100
AcDbScale
 70
     0
300
1:100
140
1.0
141
100.0
290
     0
  0
SCALE
  5
54
102
{ACAD_REACTORS
330
47
102
}
330
47
100
AcDbScale
 70
     0
300
2:1
140
2.0
141
1.0
290
     0
  0
SCALE
  5
55
102
{ACAD_REACTORS
330
47
102
}
330
47
100
AcDbScale
 70
     0
300
4:1
140
4.0
141
1.0
290
     0
  0
SCALE
  5
56
102
{ACAD_REACTORS
330
47
102
}
330
47
100
AcDbScale
 70
     0
300
8:1
140
8.0
141
1.0
290
     0
  0
SCALE
  5
57
102
{ACAD_REACTORS
330
47
102
}
330
47
100
AcDbScale
 70
     0
300
10:1
140
10.0
141
1.0
290
     0
  0
SCALE
  5
58
102
{ACAD_REACTORS
330
47
102
}
330
47
100
AcDbScale
 70
     0
300
100:1
140
100.0
141
1.0
290
     0
  0
SCALE
  5
59
102
{ACAD_REACTORS
330
47
102
}
330
47
100
AcDbScale
 70
     0
300
1/128" = 1'-0"
140
0.0078125
141
12.0
290
     0
  0
SCALE
  5
5A
102
{ACAD_REACTORS
330
47
102
}
330
47
100
AcDbScale
 70
     0
300
1/64" = 1'-0"
140
0.015625
141
12.0
290
     0
  0
SCALE
  5
5B
102
{ACAD_REACTORS
330
47
102
}
330
47
100
AcDbScale
 70
     0
300
1/32" = 1'-0"
140
0.03125
141
12.0
290
     0
  0
SCALE
  5
5C
102
{ACAD_REACTORS
330
47
102
}
330
47
100
AcDbScale
 70
     0
300
1/16" = 1'-0"
140
0.0625
141
12.0
290
     0
  0
SCALE
  5
5D
102
{ACAD_REACTORS
330
47
102
}
330
47
100
AcDbScale
 70
     0
300
3/32" = 1'-0"
140
0.09375
141
12.0
290
     0
  0
SCALE
  5
5E
102
{ACAD_REACTORS
330
47
102
}
330
47
100
AcDbScale
 70
     0
300
1/8" = 1'-0"
140
0.125
141
12.0
290
     0
  0
SCALE
  5
5F
102
{ACAD_REACTORS
330
47
102
}
330
47
100
AcDbScale
 70
     0
300
3/16" = 1'-0"
140
0.1875
141
12.0
290
     0
  0
SCALE
  5
60
102
{ACAD_REACTORS
330
47
102
}
330
47
100
AcDbScale
 70
     0
300
1/4" = 1'-0"
140
0.25
141
12.0
290
     0
  0
SCALE
  5
61
102
{ACAD_REACTORS
330
47
102
}
330
47
100
AcDbScale
 70
     0
300
3/8" = 1'-0"
140
0.375
141
12.0
290
     0
  0
SCALE
  5
62
102
{ACAD_REACTORS
330
47
102
}
330
47
100
AcDbScale
 70
     0
300
1/2" = 1'-0"
140
0.5
141
12.0
290
     0
  0
SCALE
  5
63
102
{ACAD_REACTORS
330
47
102
}
330
47
100
AcDbScale
 70
     0
300
3/4" = 1'-0"
140
0.75
141
12.0
290
     0
  0
SCALE
  5
64
102
{ACAD_REACTORS
330
47
102
}
330
47
100
AcDbScale
 70
     0
300
1" = 1'-0"
140
1.0
141
12.0
290
     0
  0
SCALE
  5
65
102
{ACAD_REACTORS
330
47
102
}
330
47
100
AcDbScale
 70
     0
300
1-1/2" = 1'-0"
140
1.5
141
12.0
290
     0
  0
SCALE
  5
66
102
{ACAD_REACTORS
330
47
102
}
330
47
100
AcDbScale
 70
     0
300
3" = 1'-0"
140
3.0
141
12.0
290
     0
  0
SCALE
  5
67
102
{ACAD_REACTORS
330
47
102
}
330
47
100
AcDbScale
 70
     0
300
6" = 1'-0"
140
6.0
141
12.0
290
     0
  0
SCALE
  5
68
102
{ACAD_REACTORS
330
47
102
}
330
47
100
AcDbScale
 70
     0
300
1'-0" = 1'-0"
140
12.0
141
12.0
290
     0
  0
ENDSEC
  0
EOF
